Oops, an error
Loading. Please wait.

Holy Ghost Acoustic tab

10,600 views 72 this week
no commentswrite comment
1 2 3 4 5
x 23
add to favorites
×
Save as Personal and add changes to this tab that will be seen only by you. Learn more ›
×
You can save this tab as Personal to edit and correct it or add notes. All changes will be seen only by you. Learn more »
launch autoscroll
font size
0
reset
how to read this tab
guitar tuner
edit
Autoscroll
slow
fast
+/-
esc
set tempo
stop
Modern Baseball - Holy Ghost
Tuning: E standard 

“He's been haunting my dreams at night…”

e------------------------------------------------------------------------------------------------|
B-------------1------------1-----------1------------1-----------1---------1----------------------|
G--------0-----------0-----------0-----------0--------------0---------0--------------------------|
D------------------------------------------------------------------------------------------------|
A-----3----------3-----------3----------3--------------------------------------------------------|
E--------------------------------------------------------1----------1----------------------------|

“He's been haunting my dreams alright”
e------------------------------------------------------------------------------------------------|
B-------------1------------1------------1-----------1------------1--------1----------------------|
G--------0-----------0-----------0-----------0--------------0---------0--------------------------|
D------------------------------------------------------------------------------------------------|
A-----3----------3-----------3-----------3-------------------------------------------------------|
E--------------------------------------------------------1---------1-----------------------------|


"Has always been three more" (STRUM EACH CHORD ONCE) then finish on repeatedly strumming last chord. 
e----------------------------------------------3------------------1------1--1--1--1--1--1--1--1--|
B-----1---------1----------1---------1---------3---------3--------1------1--1--1--1--1--1--1--1--|
G--------------------------2-----------------------------2--------2------2--2--2--2--2--2--2--2--|
D-----2--------------------2---------2-------------------0--------3------3--3--3--3--3--3--3--3--|
A-----3---------2----------------------------------------x--------3------3--3--3--3--3--3--3--3--|
E------------------------------------4---------3---------2--------1------1--1--1--1--1--1--1--1--|

LYRICS:
He's been haunting my dreams at night 
I've been bleeding from tripping in the dark 
Trying to turn on the light 
Trying to turn on the light 

He's been haunting my dreams alright 
I've been hollering at him in the dark 
Trying to find the right switch 
Yeah my third wish 

Has always been three more
But this time my holy ghost is hovering over me 
And I am passed out on the floor

            
            
Suggest correction
Creating personal tab
Creating personal tab
You can edit any tab online and save it as your Personal.

You can edit, replace or remove any tab part or add personal notes – all changes will be seen only by you.

Personal tabs can be accessed anytime from any device, even offline.
Learn more »
comments
print report bad tab
guest
You may want to rate the tab now too:
select rating
Wanna post a correction for this tab? Suggest correction