Oops, an error
Loading. Please wait.

Hope Acoustic chords

796 views 24 this week
no commentswrite comment
1 2 3 4 5
2 more votes to show rating
add to favorites
×
Save as Personal and add changes to this tab that will be seen only by you. Learn more ›
×
You can save this tab as Personal to edit and correct it or add notes. All changes will be seen only by you. Learn more »
launch autoscroll
font size
0
reset
transpose
0
reset
simplify chords
display chords
guitar tuner
edit
Autoscroll
slow
fast
+/-
esc
set tempo
stop
Strumming
There is no strumming pattern for this song yet. and get +5 IQ
(From this acoustic session - https://www.youtube.com/watch?v=CPrCPn_lhkw)


eb|-------------------------------------------------------------------------|
Bb|---0-0---0-0---0-0-0---0---0-0-7-7--0-0---0-0----------------------------|
Gb|---4-4h5-4-4---5-4-4h5-4---0-0-0-0--4-4h5-4-4----------------------------|
Db|---0-0---0-0---0-0-0---0---0-0-0-0--0-0---0-0----------------------------|
Ab|---x-x---x-x---x-x-x---x---5-5-5-5--x-x---x-x----------------------------|
Eb|---3-3---3-3--/5-5-5---5---7-7-7-7--3-3---3-3----------------------------|

I speak soft hoping you’ll hear me
Not too busy searching for your head and heart

eb|-------------------------------------7-7-7-7----------------------------------|
Bb|---0-0---0-x---0-0-0---0---0-0-7-7---8-8-8-8----------------------------------|
Gb|---4-4h5-4-x---5-4-4h5-4---0-0-0-0---0-0-0-0----------------------------------|
Db|---0-0---0-x---0-0-0---0---0-0-0-0---x-x-x-x----------------------------------|
Ab|---x-x---x-x---x-x-x---x---5-5-5-5---7-7-7-7----------------------------------|
Eb|---3-3---3-x---5-5-5---5---7-7-7-7---0-0-8-\7-\5------------------------------|

I sing loud but only in the beginning just to grab your attention
Will you bare witness to these words that have been so hard to find.

eb|---------------------------------------------------------------------------|
Bb|---------------------------------------------------------------------------|
Gb|---------------------5-5-5-5-5---------------------------------------------|
Db|---------------------5-5-5-5-5---------------------------------------------|
Ab|---------------------3-3-3-3-3---------------------------------------------|
Eb|---3-3-3-3-3-3-------------------------------------------------------------|

Look at me when I say
I’m not just another one of your fucking push-aways
In your life all you’ve seen, so sick and tired of all those movie scenes

eb|---------------------------------------------------------------------------|
Bb|---------------------------------------------------------------------------|
Gb|---------------------5-5-5-5-5---------------------------------------------|
Db|---5-5-5-5-5-5-------5-5-5-5-5---------------------------------------------|
Ab|---5-5-5-5-5-5-------3-3-3-3-3---------------------------------------------|
Eb|---3-3-3-3-3-3-------------------------------------------------------------|

I’ll let you in, I’ll pour you out,
Let’s build you straight up, turn you ‘round and spit you out.
I am hope.

     G    G/C    D(open)  D    C
eb|--3----3------0------------3-2---------|
Bb|--3----3------3--------0---0-0---------|
Gb|--4----4------0--------0---0-0---------|
Db|--5----5------4--------7---2-2---------|
Ab|--5----3------5--------5---3-3---------|
Eb|--3----3-------------------------------|

G
Look at me when I say               
                                                           G/C
I’m broken and disheveled yet still working a double on your heart and in your head.

Not to be confused with the lines about losing them.
G
I’m speaking truthfully, I’ve spent so many sleepless nights
                                               G/C
Just wondering “will I ever be able to be your hope?????”
   G
Your hope.
D(open)                               G/C
Shattered heart but you’re calling it “open minded,”
D(open)                        G/C
Dare I say you’re the one that makes me realize.
G                             D
Our nights are not labeled as “life,”
                  C
Can we call them “living?”
G                        D
I’ve found these present findings
      C
To be directly connected to your secret-carings
G                              D                             C
I’ve been speaking truthfully, I’ve spent so many sleepless nights
                                               G
Just wondering “will I ever be able to be your hope.”
G/C
Your hope.

eb|-------------------------------------------------------------------------|
Bb|---0-0---0-0---0-0-0---0---0-0-7-7--0-0---0-0----------------------------|
Gb|---4-5---4-4---5-4-4h5-4---0-0-0-0--4-4h5-4-4----------------------------|
Db|---0-0---0-0---0-0-0---0---0-0-0-0--0-0---0-0----------------------------|
Ab|---x-x---x-x---x-x-x---x---5-5-5-5--x-x---x-x----------------------------|
Eb|---3-3---3-3--/5-5-5---5---7-7-7-7--3-3---3-3----------------------------|

I sing strong,
Will you just notice me
Spewing these lines out leaving my thoughts so dry?

eb|---------------------------------7-7-7-7---------------------------------|
Bb|---0-0-0-0---0-0-0-0---0-0-7-7---8-8-8-8---------------------------------|
Gb|---4-5-4-4---5-4-5-4---0-0-0-0---0-0-0-0---------------------------------|
Db|---0-0-0-0---0-0-0-0---0-0-0-0---x-x-x-x---------------------------------|
Ab|---x-x-x-x---x-x-x-x---5-5-5-5---7-7-7-7---------------------------------|
Eb|---3-3-3-3---5-5-5-5---7-7-7-7---0-0-8-8-\7-\3---------------------------|

Just you know you’re slowly brewing
A collection of moments,
My tangle of words should explain my lack-luster last line.


************************************

| b  Bend
| h  Hammer-on
| x  Dead note
| /  Slide up
| \  Slide down

************************************

            
            
Suggest correction
Creating personal tab
Creating personal tab
You can edit any tab online and save it as your Personal.

You can edit, replace or remove any tab part or add personal notes – all changes will be seen only by you.

Personal tabs can be accessed anytime from any device, even offline.
Learn more »
Give kudos to tab author, rate the tab!
1 2 3 4 5
comments
print report bad tab
guest
You may want to rate the tab now too:
select rating
Wanna post a correction for this tab? Suggest correction