Oops, an error
Loading. Please wait.

Hope tab

292 views 24 this week
no commentswrite comment
1 2 3 4 5
3 more votes to show rating
add to favorites
×
Save as Personal and add changes to this tab that will be seen only by you. Learn more ›
×
You can save this tab as Personal to edit and correct it or add notes. All changes will be seen only by you. Learn more »
launch autoscroll
font size
0
reset
how to read this tab
guitar tuner
edit
Autoscroll
slow
fast
+/-
esc
set tempo
stop
[Intro]
(Guitar 1)
eb|-------------------------------------|------------------------------------|
Bb|-------------------------------------|----------------------0-------------|
Gb|-4---------4-4---4-5---------5-5---5-|-4---------4-4---4-5--------0-----0-|
Db|-5---------5-5---5-5---------5-5---5-|-5---------5-5---5-------7-----4----|
Ab|-x---------x-x---x-x---------x-x---x-|-x---------x-x---x------------------|
Eb|-3---------3-3---3-3---------3-3---3-|-3---------3-3---3------------------|

eb|-------------------------------------|------------------------------------|
Bb|-------------------------0-----0-----|------------------------0-----0-----|
Gb|-------5-----5-----4--------5-----5--|-------5-----5-----4-------5-----5--|
Db|-------5-----5-----5-----------------|-------5-----5-----5----------------|
Ab|-------x-----x-----x-----------------|-------x-----x-----x----------------|
Eb|-5--5--5-----5-----5-----------------|-5--5--5-----5-----5----------------|

eb|-------------------------------------|------------------------------------|
Bb|-7---------7-7---7-7---------7-7---7-|-7---------7-7---7-7---------7-7--7-|
Gb|-x---------x-x---x-x---------x-x---x-|-x---------x-x---x-x---------x-x--x-|
Db|-x---------x-x---x-x---------x-x---x-|-x---------x-x---x-x---------x-x--x-|
Ab|-5---------5-5---5-5---------5-5---5-|-5---------5-5---5-5---------5-5--5-|
Eb|-7---------7-7---7-7---------7-7---7-|-7---------7-7---7-7---------7-7--7-|

eb|-------------------------------------|------------------------------------|
Bb|-------------------------------------|------------------------------------|
Gb|-4---------4-4---4-5---------5-5---5-|-4---------4-4---4-4---------4-4--4-|
Db|-5---------5-5---5-5---------5-5---5-|-5---------5-5---5-5---------5-5--5-|
Ab|-x---------x-x---x-x---------x-x---x-|-x---------x-x---x-x---------x-x--x-|
Eb|-3---------3-3---3-3---------3-3---3-|-3---------3-3---3-3---------3-3--3-|

[2nd Guitar Enters]

(Guitar 1)
eb|-------------------------------------|------------------------------------|
Bb|-------------------------------------|------------------------------------|
Gb|-4---------4-4---4-5---------5-5---5-|-4---------4-4---4------------------|
Db|-5---------5-5---5-5---------5-5---5-|-5---------5-5---5------------------|
Ab|-x---------x-x---x-x---------x-x---x-|-x---------x-x---x------------------|
Eb|-3---------3-3---3-3---------3-3---3-|-3---------3-3---3------------------|

(Guitar 2)
eb|-------------------------5-----8-----|-7~~~~~~~--------7------------------|
Bb|-------------------5-----------------|------------------------------------|
Gb|-------4-----7-----------------------|------------------------------------|
Db|-5-----------------------------------|------------------------------------|
Ab|-------------------------------------|------------------------------------|
Eb|-------------------------------------|------------------------------------|

(Guitar 1)
eb|-------------------------------------|------------------------------------|
Bb|-------------------------------------|------------------------------------|
Gb|-5---------5-5---5-5---------5-5---5-|-5---------5-5---5-5---------5-5--5-|
Db|-5---------5-5---5-5---------5-5---5-|-5---------5-5---5-5---------5-5--5-|
Ab|-x---------x-x---x-x---------x-x---x-|-x---------x-x---x-x---------x-x--x-|
Eb|-5---------5-5---5-5---------5-5---5-|-5---------5-5---5-5---------5-5--5-|

(Guitar 2)
eb|-------------------------------------|-0----------------------------------|
Bb|-7b~~~~~~~~--------------------3-----|-------3----------------------------|
Gb|-------------------------------------|-------------5-----4----------------|
Ab|-------------------------------------|------------------------------------|
Ab|-------------------------------------|------------------------------------|
Eb|-------------------------------------|------------------------------------|

(Guitar 1)
eb|-------------------------------------|------------------------------------|
Bb|-------------------------------------|------------------------------------|
Gb|-4-----4-----4-----4-----4-----4-----|-4-----4-----4-----4-----4-----4----|
Db|-5-----5-----5-----5-----5-----5-----|-5-----5-----5-----5-----5-----5----|
Ab|-7-----7-----7-----7-----7-----7-----|-3-----3-----3-----3-----3-----3----|
Eb|-0-----0-----0-----0-----0-----0-----|-3-----3-----3-----3-----3-----3----|

(Guitar 2)
eb|------------------------------------|-------7-----------8-----------7-----|
Bb|-------0-----------1-----------3----|-8-----------8-----------8-----------|
Gb|-0-----------0-----------0----------|-------------------------------------|
Db|------------------------------------|-------------------------------------|
Ab|------------------------------------|-------------------------------------|
Eb|------------------------------------|-------------------------------------|

(Guitar 1)
eb|-------------------------------------|
Bb|-------------------------------------|
Gb|-------------------------------------|
Db|-------------------------------------| (x4)
Ab|-------------------------------------|
Eb|-3-----3-----3-----3-----3-----3-----|

eb|-------------------------------------|
Bb|-------------------------------------|
Gb|-4-----4-----4-----4-----4-----4-----|
Db|-5-----5-----5-----5-----5-----5-----| (x4)
Ab|-3-----3-----3-----3-----3-----3-----|
Eb|-------------------------------------|

{Both Guitars}
eb|-------------------------------------|
Bb|-------------------------------------|
Gb|-------------------------------------|
Db|-------------------------------------| (x4)
Ab|-5-----5-----5-----5-----5-----5-----|
Eb|-3-----3-----3-----3-----3-----3-----|

{Guitar 1)
eb|-------------------------------------|------------------------------------|
Bb|-------------------------------------|------------------------------------|
Gb|-4-----4-----4-----4-----4-----4-----|-4----------------------------------|
Db|-5-----5-----5-----5-----5-----5---x3|-5----------------------------------|
Ab|-3-----3-----3-----3-----3-----3-----|-3----------------------------------|
Eb|-------------------------------------|------------------------------------|

(Guitar 1)
eb|-------------------------------------|------------------------------------|
Bb|-------3-----------------3-----------|-------3-----------------3----------|
Gb|-0-2-4----4--------0-2-4----2--------|-0-2-4----0--------0-2-4----0-------|
Db|-------------------------------------|------------------------------------|
Ab|-------------------------------------|------------------------------------|
Eb|-------------------------------------|------------------------------------|

eb|-------------------------------------|------------------------------------|
Bb|-------3-----------------3-----------|------------------------------------|
Gb|-0-2-4----4--------0-2-4----2--------|-0~~~~~~~~~~~~----------------------|
Db|-------------------------------------|------------------------------------|
Ab|-------------------------------------|------------------------------------|
Eb|-------------------------------------|------------------------------------|

[Time Change]
(Both Guitars)
eb|-------------------------------------|
Bb|-------------------------------------|
Gb|-4-4-4-----4-4-----4-4-4-----4-4-----|
Db|-5-3-3-----5-5-----5-5-5-----5-5-----| (x4)
Ab|-5-3-3-----5-5-----5-5-5-----5-5-----|
Eb|-3-3-3-----3-3-----3-3-3-----3-3-----|

[Verse]
eb|-------------------------------------|------------------------------------|
Bb|-------------------------------------|------------------------------------|
Gb|-4-4-4-----4-4-----4-4-4-----4-4-----|-4-4-4-----4-4-----4-4-4-----4-4----|
Db|-5-3-3-----5-5-----5-5-5-----5-5---x4|-5-5-5-----5-5-----5-5-5-----5-5----|(x4)
Ab|-5-3-3-----5-5-----5-5-5-----5-5-----|-3-5-5-----5-5-----5-5-5-----5-5----|
Eb|-3-3-3-----3-3-----3-3-3-----3-3-----|-3-3-3-----3-3-----3-3-3-----3-3----|

eb|-------------------------------------|------------------------------------|
Bb|-------------------------------------|------------------------------------|
Gb|-4-4-4-----4-4-----4-4-4-----4-4-----|-4-4-4-----4-4-----4-4-4-----4-4----|
Db|-5-3-3-----5-5-----5-5-5-----5-5---x4|-5-5-5-----5-5-----5-5-5-----5-5----|(x4)
Ab|-5-3-3-----5-5-----5-5-5-----5-5-----|-3-5-5-----5-5-----5-5-5-----5-5----|
Eb|-3-3-3-----3-3-----3-3-3-----3-3-----|-3-3-3-----3-3-----3-3-3-----3-3----|

eb|-------------------------------------|-------------------------------------|
Bb|-3---3-------3-3-3-3---3-------3-3-3-|-------------------------------------|
Gb|-0---0-------0-0-0-0---0-------0-0-0-|-4---4-------4-4-4-4---4-------4-4-4-|
Db|-4---4-------4-4-4-4---4-------4-4-4-|-5---5-------5-5-5-5---5-------5-5-5-|
Ab|-5---5-------5-5-5-5---5-------5-5-5-|-3---3-------3-3-3-3---3-------3-3-3-|
Eb|-------------------------------------|-3---3-------3-3-3-3---3-------3-3-3-|

eb|-------------------------------------|
Bb|-3---3-------3-3-3-3---3-------3-3-3-|
Gb|-0---0-------0-0-0-0---0-------0-0-0-|
Db|-4---4-------4-4-4-4---4-------4-4-4-|
Ab|-5---5-------5-5-5-5---5-------5-5-5-|
Eb|-------------------------------------|

[Time Change]
eb|--------------------------------------|------------------------------------|
Bb|--------------------------------------|------------------------------------|
Gb|-4--------4--------4--------4-4-4-4---|-4-~~~~~~~~~------------------------|
Db|-5--------5--------5--------5-5-5-5-x3|-5-~~~~~~~~~------------------------|
Ab|-3--------3--------3--------3-3-3-3---|-3-~~~~~~~~~------------------------|
Eb|-3--------3--------3--------3-3-3-3---|-3-~~~~~~~~~------------------------|

[Fast Part]
eb|-------------------------------------|-------------------------------------|
Bb|-3---3-------3-3-3-3---3-------3-3-3-|-3---3-------3-3-3-3---3-------3-3-3-|
Gb|-0---0-------0-0-0-0---0-------0-0-0-|-0---0-------0-0-0-0---0-------0-0-0-|
Db|-5---5-------5-5-5-5---5-------5-5-5-|-4---4-------4-4-4-4---4-------4-4-4-|
Ab|-5---5-------5-5-5-5---5-------5-5-5-|-5---5-------5-5-5-5---5-------5-5-5-|
Eb|-------------------------------------|-------------------------------------|
                                                                                  (x3)
eb|-------------------------------------|-------------------------------------|
Bb|-3---3-------3-3-3-3---3-------3-3-3-|-3---3-------3-3-3-3---3-------3-3-3-|
Gb|-0---0-------0-0-0-0---0-------0-0-0-|-0---0-------0-0-0-0---0-------0-0-0-|
Db|-2---2-------2-2-2-2---2-------2-2-2-|-2---2-------2-2-2-2---2-------2-2-2-|
Ab|-3---3-------3-3-3-3---3-------3-3-3-|-3---3-------3-3-3-3---3-------3-3-3-|
Eb|-------------------------------------|-------------------------------------|

eb|-------------------------------------|-------------------------------------|
Bb|-3---3-------3-3-3-3---3-------3-3-3-|-3---3-------3-3-3-3---3-------3-3-3-|
Gb|-0---0-------0-0-0-0---0-------0-0-0-|-0---0-------0-0-0-0---0-------0-0-0-|
Db|-5---5-------5-5-5-5---5-------5-5-5-|-4---4-------4-4-4-4---4-------4-4-4-|
Ab|-5---5-------5-5-5-5---5-------5-5-5-|-5---5-------5-5-5-5---5-------5-5-5-|
Eb|-------------------------------------|-------------------------------------|

eb|-------------------------------------|
Bb|-3---3-------3-3-3-3---3-------3-3-3-|
Gb|-0---0-------0-0-0-0---0-------0-0-0-|
Db|-2---2-------2-2-2-2---2-------2-2-2-|
Ab|-3---3-------3-3-3-3---3-------3-3-3-|
Eb|-------------------------------------|

eb|--------------------------------------|------------------------------------|
Bb|--------------------------------------|------------------------------------|
Gb|-4--------4--------4--------4-4-4-4---|-4-~~~~~~~~~------------------------|
Db|-5--------5--------5--------5-5-5-5-x3|-5-~~~~~~~~~------------------------|
Ab|-3--------3--------3--------3-3-3-3---|-3-~~~~~~~~~------------------------|
Eb|-3--------3--------3--------3-3-3-3---|-3-~~~~~~~~~------------------------|

[Ending]
eb|-----------------------------------------|-----------------------------------------|
Bb|-----------------------------------------|-----------------------------------------|
Gb|-4----5----4----5--4---4--5----4----4----|-5----4----5----4--5---5--4----5----4----|
Db|-5----5----5----5--5---5--5----5----5----|-5----5----5----5--5---5--5----5----5----|
Ab|-x----x----x----x--x---x--x----x----x----|-x----x----x----x--x---x--x----x----x----|
Eb|-3----3----3----3--3---3--3----3----3----|-5----5----5----5--5---5--5----5----5----|

eb|-----------------------------------------|-----------------------------------------|
Bb|-7----7----7----7--7---7--7----7----7----|-----------------------------------------|
Gb|-7----7----7----7--7---7--7----7----7----|-4----5----4----5--4---4--5----4----5----|
Db|-x----x----x----x--x---x--x----x----x----|-5----5----5----5--5---5--5----5----5----|
Ab|-5----5----5----5--5---5--5----5----5----|-x----x----x----x--x---x--x----x----x----|
Eb|-7----7----7----7--7---7--7----7----7----|-3----3----3----3--3---3--3----3----3----|

eb|-----------------------------------------|-----------------------------------------|
Bb|-----------------------------------------|-----------------------------------------|
Gb|-4----5----4----5--4---4--5----4----4----|-5----4----5----4--5---5--4----5----4----|
Db|-5----5----5----5--5---5--5----5----5----|-5----5----5----5--5---5--5----5----5----|
Ab|-x----x----x----x--x---x--x----x----x----|-x----x----x----x--x---x--x----x----x----|
Eb|-3----3----3----3--3---3--3----3----3----|-5----5----5----5--5---5--5----5----5----|

eb|-----------------------------------------|-------------------------------------------------|
Bb|-7----7----7----7--7---7--7----7----7----|-------------------------------------------------|
Gb|-7----7----7----7--7---7--7----7----7----|-4--4--4--4--4--4--4--4--4--4--4--4--------------|
Db|-x----x----x----x--x---x--x----x----x----|-5--5--5--5--5--5--5--5--5--5--5--5--5-----5-----|
Ab|-5----5----5----5--5---5--5----5----5----|-7--7--7--7--7--7--7--7--3--3--3--3--3-----2-----|
Eb|-7----7----7----7--7---7--7----7----7----|-0--0--0--0--0--0--0--0--------------------------|

eb|-----------------------------------------|
Bb|-----------------------------------------|
Gb|-4~~~~~~~~~~~~~~~~~~~~~~~~~~~~~~~~~~~~~--|
Db|-5~~~~~~~~~~~~~~~~~~~~~~~~~~~~~~~~~~~~~--|
Ab|-5~~~~~~~~~~~~~~~~~~~~~~~~~~~~~~~~~~~~~--|
Eb|-3~~~~~~~~~~~~~~~~~~~~~~~~~~~~~~~~~~~~~--|


************************************

| b  Bend
| x  Dead note
| ~  Vibrato

************************************

            
            
Suggest correction
Creating personal tab
Creating personal tab
You can edit any tab online and save it as your Personal.

You can edit, replace or remove any tab part or add personal notes – all changes will be seen only by you.

Personal tabs can be accessed anytime from any device, even offline.
Learn more »
Give kudos to tab author, rate the tab!
1 2 3 4 5
comments
print report bad tab
guest
You may want to rate the tab now too:
select rating
Wanna post a correction for this tab? Suggest correction