Oops, an error
Loading. Please wait.
We have Chord Pro version of Mass.
It's the closest thing you can get to the original song and it has interactive parts. Check out the tab »
×

Mass tab

version 1
version 1

Whole song

Interactive

3,637 views 36 this week
1 commentread comment
1 2 3 4 5
x 4
add to favorites
×
Save as Personal and add changes to this tab that will be seen only by you. Learn more ›
×
You can save this tab as Personal to edit and correct it or add notes. All changes will be seen only by you. Learn more »
launch autoscroll
font size
0
reset
how to read this tab
guitar tuner
edit
Autoscroll
slow
fast
+/-
esc
set tempo
stop
Author
Difficulty
-----------------------------------
 Mass (Acoustic) ~ Modern Baseball
-----------------------------------

Tab is based off of this Moshcam session:
http://www.moshcam.com/videos/13101/behind-the-music-modern-baseball-4



VERSE

  Jake
E|-----------------|-----------------|-----------------|-----------------|
B|-----------------|-----------------|-----------------|-----------------|
G|-1-1-1-1-1-1-1-1-|-1-1-1-1-1-1-1-1-|-1-1-1-1-1-1-1-1-|-1-1-1-1-1-1-1-1-|
D|-2-2-2-2-2-2-2-2-|-2-2-2-2-2-2-2-2-|-2-2-2-2-2-2-2-2-|-2-2-2-2-2-2-2-2-| x2
A|-2-2-2-2-2-2-2-2-|-2-2-2-2-2-2-2-2-|-0-0-0-0-0-0-0-0-|-0-0-0-0-0-0-0-0-|
E|-0-0-0-0-0-0-0-0-|-0-0-0-0-0-0-0-0-|-----------------|-----------------|



CHORUS

  Jake
E|-----0-------0---|-----0-------0---|-----0-------0---|-----0-------0---|
B|-----0-------0---|-----0-------0---|-----0-------0---|-----0-------0---|
G|-----X-------X---|-----X-------X---|-----X-------X---|-----X-------X---|
D|-6-6-6-6-6-6-6-6-|-6-6-6-6-6-6-6-6-|-7-7-7-7-7-7-7-7-|-7-7-7-7-7-7-7-7-|
A|-7-7-7-7-7-7-7-7-|-7-7-7-7-7-7-7-7-|-7-7-7-7-7-7-7-7-|-7-7-7-7-7-7-7-7-|
E|-4-4-4-4-4-4-4-4-|-4-4-4-4-4-4-4-4-|-5-5-5-5-5-5-5-5-|-5-5-5-5-5-5-5-5-|

E|-0-0-0-0-0-0-0-0-|-0-0-0-0-0-0-0-0-|-0-0-0-0-0-0-0-0-|-0-0-0-0-0-0-0-0-|
B|-0-0-0-0-0-0-0-0-|-0-0-0-0-0-0-0-0-|-0-0-0-0-0-0-0-0-|-0-0-0-0-0-0-0-0-|
G|-1-1-1-1-1-1-1-1-|-9-9-9-9-9-9-9-9-|-6-6-6-6-6-6-6-6-|-6-6-6-6-6-6-6-6-|
D|-2-2-2-2-2-2-2-2-|-9-9-9-9-9-9-9-9-|-6-6-6-6-6-6-6-6-|-6-6-6-6-6-6-6-6-| 
A|-2-2-2-2-2-2-2-2-|-6-6-6-6-6-6-6-6-|-4-4-4-4-4-4-4-4-|-4-4-4-4-4-4-4-4-|
E|-0-0-0-0-0-0-0-0-|-----------------|-----------------|-----------------|

E|-----0-------0---|-----0-------0---|-----0-------0---|-----0-------0---|
B|-----0-------0---|-----0-------0---|-----0-------0---|-----0-------0---|
G|-----X-------X---|-----X-------X---|-----X-------X---|-----X-------X---|
D|-6-6-6-6-6-6-6-6-|-6-6-6-6-6-6-6-6-|-7-7-7-7-7-7-7-7-|-7-7-7-7-7-7-7-7-|
A|-7-7-7-7-7-7-7-7-|-7-7-7-7-7-7-7-7-|-7-7-7-7-7-7-7-7-|-7-7-7-7-7-7-7-7-|
E|-4-4-4-4-4-4-4-4-|-4-4-4-4-4-4-4-4-|-5-5-5-5-5-5-5-5-|-5-5-5-5-5-5-5-5-|

E|-0-0-0-0-0-0-0-0-|-0-0-0-0-0-0-0-0-|-0-0-0-0-0-0-0-0-|-----------------|
B|-0-0-0-0-0-0-0-0-|-0-0-0-0-0-0-0-0-|-0-0-0-0-0-0-0-0-|-----------------|
G|-1-1-1-1-1-1-1-1-|-9-9-9-9-9-9-9-9-|-6-6-6-6-6-6-6-6-|-----------------|
D|-2-2-2-2-2-2-2-2-|-9-9-9-9-9-9-9-9-|-6-6-6-6-6-6-6-6-|-4-4-4-4-6-6-6-6-| 
A|-2-2-2-2-2-2-2-2-|-6-6-6-6-6-6-6-6-|-4-4-4-4-4-4-4-4-|-4-4-4-4-7-7-7-7-|
E|-0-0-0-0-0-0-0-0-|-----------------|-----------------|-2-2-2-2-4-4-4-4-|

E|-0-0-0-0-0-0-0-0-|-0-0-0-0-0-0-0-0-|
B|-0-0-0-0-0-0-0-0-|-0-0-0-0-0-0-0-0-|
G|-6-6-6-6-6-6-6-6-|-6-6-6-6-6-6-6-6-|
D|-7-7-7-7-7-7-7-7-|-7-7-7-7-7-7-7-7-|
A|-7-7-7-7-7-7-7-7-|-7-7-7-7-7-7-7-7-|
E|-5-5-5-5-5-5-5-5-|-5-5-5-5-5-5-5-5-|


  Brendan
E|-----------------|-----------------|-----------------|-----------------|
B|-9-9-9-9-9-9-9-9-|-9-9-9-9-9-9-9-9-|-9-9-9-9-9-9-9-9-|-9-9-9-9-9-9-9-9-|
G|-9-9-9-9-9-9-9-9-|-9-9-9-9-9-9-9-9-|-9-9-9-9-9-9-9-9-|-9-9-9-9-9-9-9-9-|
D|-6-6-6-6-6-6-6-6-|-6-6-6-6-6-6-6-6-|-7-7-7-7-7-7-7-7-|-7-7-7-7-7-7-7-7-|
A|-----------------|-----------------|-----------------|-----------------|
E|-----------------|-----------------|-----------------|-----------------|

E|-----------------|-----------------|-----------------|-----------------|
B|-------9---------|-------9---------|-------9---------|-------9---------|
G|------------9----|------------9----|------------9----|------------9----|
D|-9---------------|-7---------------|-----------------|-----------------|
A|-----------------|-----------------|-7---------------|-9---------------|
E|-----------------|-----------------|-----------------|-----------------|

E|-----------------|-----------------|-----------------|-----------------|
B|-9-9-9-9-9-9-9-9-|-9-9-9-9-9-9-9-9-|-9-9-9-9-9-9-9-9-|-9-9-9-9-9-9-9-9-|
G|-9-9-9-9-9-9-9-9-|-9-9-9-9-9-9-9-9-|-9-9-9-9-9-9-9-9-|-9-9-9-9-9-9-9-9-|
D|-6-6-6-6-6-6-6-6-|-6-6-6-6-6-6-6-6-|-7-7-7-7-7-7-7-7-|-7-7-7-7-7-7-7-7-|
A|-----------------|-----------------|-----------------|-----------------|
E|-----------------|-----------------|-----------------|-----------------|

E|-----------------|-----------------|-----------------|-----------------|
B|-------9---------|-------9---------|-------9---------|-------9---------|
G|------------9----|------------9----|------------9----|------------9----|
D|-9---------------|-7---------------|-----------------|-----------------|
A|-----------------|-----------------|-7---------------|-9---------------|
E|-----------------|-----------------|-----------------|-----------------|

E|-----------------|-----------------|
B|-9-9-9-9-9-9-9-9-|-9-9-9-9-9-9-9-9-|
G|-9-9-9-9-9-9-9-9-|-9-9-9-9-9-9-9-9-|
D|-7-7-7-7-7-7-7-7-|-7-7-7-7-7-7-7-7-|
A|-----------------|-----------------|
E|-----------------|-----------------|



VERSE

  Jake
E|-----------------|-----------------|-----------------|-----------------|
B|-----------------|-----------------|-----------------|-----------------|
G|-1-1-1-1-1-1-1-1-|-1-1-1-1-1-1-1-1-|-1-1-1-1-1-1-1-1-|-1-1-1-1-1-1-1-1-|
D|-2-2-2-2-2-2-2-2-|-2-2-2-2-2-2-2-2-|-2-2-2-2-2-2-2-2-|-2-2-2-2-2-2-2-2-| x2
A|-2-2-2-2-2-2-2-2-|-2-2-2-2-2-2-2-2-|-0-0-0-0-0-0-0-0-|-0-0-0-0-0-0-0-0-|
E|-0-0-0-0-0-0-0-0-|-0-0-0-0-0-0-0-0-|-----------------|-----------------|



BRIDGE

  Jake
E|-----0-------0---|-----0-------0---|-----0-------0---|-----0-------0---|
B|-----0-------0---|-----0-------0---|-----0-------0---|-----0-------0---|
G|-----X-------X---|-----X-------X---|-----X-------X---|-----X-------X---|
D|-6-6-6-6-6-6-6-6-|-6-6-6-6-6-6-6-6-|-7-7-7-7-7-7-7-7-|-7-7-7-7-7-7-7-7-|
A|-7-7-7-7-7-7-7-7-|-7-7-7-7-7-7-7-7-|-7-7-7-7-7-7-7-7-|-7-7-7-7-7-7-7-7-|
E|-4-4-4-4-4-4-4-4-|-4-4-4-4-4-4-4-4-|-5-5-5-5-5-5-5-5-|-5-5-5-5-5-5-5-5-|

E|-0-0-0-0-0-0-0-0-|-0-0-0-0-0-0-0-0-|-0-0-0-0-0-0-0-0-|-0-0-0-0-0-0-0-0-|
B|-0-0-0-0-0-0-0-0-|-0-0-0-0-0-0-0-0-|-0-0-0-0-0-0-0-0-|-0-0-0-0-0-0-0-0-|
G|-1-1-1-1-1-1-1-1-|-9-9-9-9-9-9-9-9-|-6-6-6-6-6-6-6-6-|-6-6-6-6-6-6-6-6-|
D|-2-2-2-2-2-2-2-2-|-9-9-9-9-9-9-9-9-|-6-6-6-6-6-6-6-6-|-7-7-7-7-7-7-7-7-|
A|-2-2-2-2-2-2-2-2-|-6-6-6-6-6-6-6-6-|-4-4-4-4-4-4-4-4-|-7-7-7-7-7-7-7-7-|
E|-0-0-0-0-0-0-0-0-|-----------------|-----------------|-5-5-5-5-5-5-5-5-|

E|-0-0-0-0-0-0-0-0-|-0-0-0-0-0-0-0-0-|
B|-0-0-0-0-0-0-0-0-|-0-0-0-0-0-0-0-0-|
G|-8-8-8-8-8-8-8-8-|-8-8-8-8-8-8-8-8-|
D|-9-9-9-9-9-9-9-9-|-9-9-9-9-9-9-9-9-|
A|-9-9-9-9-9-9-9-9-|-9-9-9-9-9-9-9-9-|
E|-7-7-7-7-7-7-7-7-|-7-7-7-7-7-7-7-7-|


  Brendan
E|-----------------|-----------------|-----------------|-----------------|
B|-----------------|-----------------|-----------------|-----------------|
G|-----------------|-----------------|-----------------|-----------------|
D|-----------------|-----------------|-----------------|-----------------|
A|/7~~~~-----------|-6~~~~-----------|/11~~~-----------|-11~~~-----------|
E|-----------------|-----------------|-----------------|-----------------|

E|-----------------|-----------------|-----------------|-----------------|
B|-------9---------|-------9---------|-------9---------|-------9---------|
G|-----9-------9---|-----9-------9---|-----9-------9---|-----9-------9---|
D|-9h11------------|-9h11------------|-9h11------------|-9h11------------|
A|-----------------|-----------------|-----------------|-----------------|
E|-----------------|-----------------|-----------------|-----------------|

E|-----------------|-----------------|
B|-----------------|-----------------|
G|-----------------|-----------------|
D|-9-9-9-9-9-9-9-9-|-9-9-9-9-9-9-9-9-|
A|-----------------|-----------------|
E|-----------------|-----------------|



PRE-CHORUS

  Jake & Brendan
E|-----------------|-----------------|-----------------|-----------------|
B|-----------------|-----------------|-----------------|-----------------|
G|-----------------|-----------------|-----------------|-----------------|
D|-6-6-6-6-6-6-6-6-|-6-6-6-6-6-6-6-6-|-7-7-7-7-7-7-7-7-|-7-7-7-7-7-------|
A|-7-7-7-7-7-7-7-7-|-7-7-7-7-7-7-7-7-|-7-7-7-7-7-7-7-7-|-7-7-7-7-7-------|
E|-4-4-4-4-4-4-4-4-|-4-4-4-4-4-4-4-4-|-5-5-5-5-5-5-5-5-|-5-5-5-5-5-------|

E|-0-0-0-0-0-0-0-0-|-0-0-0-0-0-0-0-0-|-0-0-0-0-0-0-0-0-|-0-0-0-0-0-0-0-0-|
B|-0-0-0-0-0-0-0-0-|-0-0-0-0-0-0-0-0-|-0-0-0-0-0-0-0-0-|-0-0-0-0-0-0-0-0-|
G|-1-1-1-1-1-1-1-1-|-9-9-9-9-9-9-9-9-|-4-4-4-4-4-4-4-4-|-2-2-2-2-2-2-2-2-|
D|-2-2-2-2-2-2-2-2-|-9-9-9-9-9-9-9-9-|-4-4-4-4-4-4-4-4-|-2-2-2-2-2-2-2-2-|
A|-2-2-2-2-2-2-2-2-|-6-6-6-6-6-6-6-6-|-2-2-2-2-2-2-2-2-|-0-0-0-0-0-0-0-0-|
E|-0-0-0-0-0-0-0-0-|-----------------|-----------------|-----------------|



OUTRO - CHORUS

  Jake
E|-----0-------0---|-----0-------0---|-----0-------0---|-----0-------0---|
B|-----0-------0---|-----0-------0---|-----0-------0---|-----0-------0---|
G|-----X-------X---|-----X-------X---|-----X-------X---|-----X-------X---|
D|-6-6-6-6-6-6-6-6-|-6-6-6-6-6-6-6-6-|-7-7-7-7-7-7-7-7-|-7-7-7-7-7-7-7-7-|
A|-7-7-7-7-7-7-7-7-|-7-7-7-7-7-7-7-7-|-7-7-7-7-7-7-7-7-|-7-7-7-7-7-7-7-7-|
E|-4-4-4-4-4-4-4-4-|-4-4-4-4-4-4-4-4-|-5-5-5-5-5-5-5-5-|-5-5-5-5-5-5-5-5-|

E|-0-0-0-0-0-0-0-0-|-0-0-0-0-0-0-0-0-|-0-0-0-0-0-0-0-0-|-0-0-0-0-0-0-0-0-|
B|-0-0-0-0-0-0-0-0-|-0-0-0-0-0-0-0-0-|-0-0-0-0-0-0-0-0-|-0-0-0-0-0-0-0-0-|
G|-1-1-1-1-1-1-1-1-|-9-9-9-9-9-9-9-9-|-6-6-6-6-6-6-6-6-|-6-6-6-6-6-6-6-6-|
D|-2-2-2-2-2-2-2-2-|-9-9-9-9-9-9-9-9-|-6-6-6-6-6-6-6-6-|-6-6-6-6-6-6-6-6-| 
A|-2-2-2-2-2-2-2-2-|-6-6-6-6-6-6-6-6-|-4-4-4-4-4-4-4-4-|-4-4-4-4-4-4-4-4-|
E|-0-0-0-0-0-0-0-0-|-----------------|-----------------|-----------------|

E|-----0-------0---|-----0-------0---|-----0-------0---|-----0-------0---|
B|-----0-------0---|-----0-------0---|-----0-------0---|-----0-------0---|
G|-----X-------X---|-----X-------X---|-----X-------X---|-----X-------X---|
D|-6-6-6-6-6-6-6-6-|-6-6-6-6-6-6-6-6-|-7-7-7-7-7-7-7-7-|-7-7-7-7-7-7-7-7-|
A|-7-7-7-7-7-7-7-7-|-7-7-7-7-7-7-7-7-|-7-7-7-7-7-7-7-7-|-7-7-7-7-7-7-7-7-|
E|-4-4-4-4-4-4-4-4-|-4-4-4-4-4-4-4-4-|-5-5-5-5-5-5-5-5-|-5-5-5-5-5-5-5-5-|

E|-0-0-0-0-0-0-0-0-|-0-0-0-0-0-0-0-0-|-0-0-0-0-0-0-0-0-|-----------------|
B|-0-0-0-0-0-0-0-0-|-0-0-0-0-0-0-0-0-|-0-0-0-0-0-0-0-0-|-----------------|
G|-1-1-1-1-1-1-1-1-|-9-9-9-9-9-9-9-9-|-6-6-6-6-6-6-6-6-|-----------------|
D|-2-2-2-2-2-2-2-2-|-9-9-9-9-9-9-9-9-|-6-6-6-6-6-6-6-6-|-4-4-4-4-6-6-6-6-| 
A|-2-2-2-2-2-2-2-2-|-6-6-6-6-6-6-6-6-|-4-4-4-4-4-4-4-4-|-4-4-4-4-7-7-7-7-|
E|-0-0-0-0-0-0-0-0-|-----------------|-----------------|-2-2-2-2-4-4-4-4-|

E|-0-0-0-0-0-0-0-0-|-0-0-0-0-0-0-0-0-|-0---------------|
B|-0-0-0-0-0-0-0-0-|-0-0-0-0-0-0-0-0-|-0---------------|
G|-6-6-6-6-6-6-6-6-|-6-6-6-6-6-6-6-6-|-1---------------|
D|-7-7-7-7-7-7-7-7-|-7-7-7-7-7-7-7-7-|-2---------------|
A|-7-7-7-7-7-7-7-7-|-7-7-7-7-7-7-7-7-|-2---------------|
E|-5-5-5-5-5-5-5-5-|-5-5-5-5-5-5-5-5-|-0---------------|


  Brendan
E|-----------------|-----------------|-----------------|-----------------|
B|-9-9-9-9-9-9-9-9-|-9-9-9-9-9-9-9-9-|-9-9-9-9-9-9-9-9-|-9-9-9-9-9-9-9-9-|
G|-9-9-9-9-9-9-9-9-|-9-9-9-9-9-9-9-9-|-9-9-9-9-9-9-9-9-|-9-9-9-9-9-9-9-9-|
D|-6-6-6-6-6-6-6-6-|-6-6-6-6-6-6-6-6-|-7-7-7-7-7-7-7-7-|-7-7-7-7-7-7-7-7-|
A|-----------------|-----------------|-----------------|-----------------|
E|-----------------|-----------------|-----------------|-----------------|

E|-----------------|-----------------|-----------------|-----------------|
B|-------9---------|-------9---------|-------9---------|-------9---------|
G|------------9----|------------9----|------------9----|------------9----|
D|-9---------------|-7---------------|-----------------|-----------------|
A|-----------------|-----------------|-7---------------|-9---------------|
E|-----------------|-----------------|-----------------|-----------------|

E|-----------------|-----------------|-----------------|-----------------|
B|-9-9-9-9-9-9-9-9-|-9-9-9-9-9-9-9-9-|-9-9-9-9-9-9-9-9-|-9-9-9-9-9-9-9-9-|
G|-9-9-9-9-9-9-9-9-|-9-9-9-9-9-9-9-9-|-9-9-9-9-9-9-9-9-|-9-9-9-9-9-9-9-9-|
D|-6-6-6-6-6-6-6-6-|-6-6-6-6-6-6-6-6-|-7-7-7-7-7-7-7-7-|-7-7-7-7-7-7-7-7-|
A|-----------------|-----------------|-----------------|-----------------|
E|-----------------|-----------------|-----------------|-----------------|

E|-----------------|-----------------|-----------------|-----------------|
B|-------9---------|-------9---------|-------9---------|-------9---------|
G|------------9----|------------9----|------------9----|------------9----|
D|-9---------------|-7---------------|-----------------|-----------------|
A|-----------------|-----------------|-7---------------|-9---------------|
E|-----------------|-----------------|-----------------|-----------------|

E|-----------------|-----------------|-----------------|
B|-9-9-9-9-9-9-9-9-|-9-9-9-9-9-9-9-9-|-9---------------|
G|-9-9-9-9-9-9-9-9-|-9-9-9-9-9-9-9-9-|-9---------------|
D|-7-7-7-7-7-7-7-7-|-7-7-7-7-7-7-7-7-|-----------------|
A|-----------------|-----------------|-----------------|
E|-----------------|-----------------|-----------------|



            
            
Suggest correction
Creating personal tab
Creating personal tab
You can edit any tab online and save it as your Personal.

You can edit, replace or remove any tab part or add personal notes – all changes will be seen only by you.

Personal tabs can be accessed anytime from any device, even offline.
Learn more »
comments
print report bad tab
1 comment total.
+1 reply
marcusxjchong 160 May 16, 2016 01:56 AM

thanks so much for this, can't believe I hadn't seen that Moshcam session too!

guest
You may want to rate the tab now too:
select rating
Wanna post a correction for this tab? Suggest correction