Oops, an error
Loading. Please wait.
We have Chord Pro version of Mass.
It's the closest thing you can get to the original song and it has interactive parts. Check out the tab »
×

Mass tab

version 2
version 2

Whole song

Interactive

1,963 views 9 this week
no commentswrite comment
1 2 3 4 5
2 more votes to show rating
add to favorites
×
Save as Personal and add changes to this tab that will be seen only by you. Learn more ›
×
You can save this tab as Personal to edit and correct it or add notes. All changes will be seen only by you. Learn more »
launch autoscroll
font size
0
reset
how to read this tab
guitar tuner
edit
Autoscroll
slow
fast
+/-
esc
set tempo
stop
Author
Difficulty
------------------------
 Modern Baseball ~ Mass
------------------------
Album: Holy Ghost (2016)

Tuning: Standard



VERSE

  Guitars 1 & 2 (Palm Muted)
E|-----------------|-----------------|-----------------|-----------------|
B|-----------------|-----------------|-----------------|-----------------|
G|-----------------|-----------------|-----------------|-----------------|
D|-----------------|-----------------|-----------------|-----------------| x2
A|-2-2-2-2-2-2-2-2-|-2-2-2-2-2-2-2-2-|-7-7-7-7-7-7-7-7-|-7-7-7-7-7-7-7-7-|
E|-0-0-0-0-0-0-0-0-|-0-0-0-0-0-0-0-0-|-5-5-5-5-5-5-5-5-|-5-5-5-5-5-5-5-5-|



CHORUS

  Guitar 1
E|-----------------|-----------------|-----------------|-----------------|
B|-----------------|-----------------|-----------------|-----------------|
G|-----------------|-----------------|-----------------|-----------------|
D|-6-6-6-6-6-6-6-6-|-6-6-6-6-6-6-6-6-|-7-7-7-7-7-7-7-7-|-7-7-7-7-7-7-7-7-|
A|-7-7-7-7-7-7-7-7-|-7-7-7-7-7-7-7-7-|-7-7-7-7-7-7-7-7-|-7-7-7-7-7-7-7-7-|
E|-4-4-4-4-4-4-4-4-|-4-4-4-4-4-4-4-4-|-5-5-5-5-5-5-5-5-|-5-5-5-5-5-5-5-5-|

E|-0-0-0-0-----0---|-0-0-0-0-----0---|-0-0-0-0-----0---|-0-0-0-0-----0---|
B|-0-0-0-0-----0---|-0-0-0-0-----0---|-0-0-0-0-----0---|-0-0-0-0-----0---|
G|-9-9-9-9-----9---|-9-9-9-9-----9---|-9-9-9-9-----9---|-9-9-9-9-----9---|
D|-9-9-9-9-----9---|-9-9-9-9-----9---|-9-9-9-9-----9---|-9-9-9-9-----9---|
A|-7-7-7-7-----7---|-6-6-6-6-----6---|-X-X-X-X-----X---|-X-X-X-X-----X---|
E|-----------------|-----------------|-9-9-9-9-----9---|-9-9-9-9-----9---|

E|-----------------|-----------------|-----------------|-----------------|
B|-----------------|-----------------|-----------------|-----------------|
G|-----------------|-----------------|-----------------|-----------------|
D|-6-6-6-6-6-6-6-6-|-6-6-6-6-6-6-6-6-|-7-7-7-7-7-7-7-7-|-7-7-7-7-7-7-7-7-|
A|-7-7-7-7-7-7-7-7-|-7-7-7-7-7-7-7-7-|-7-7-7-7-7-7-7-7-|-7-7-7-7-7-7-7-7-|
E|-4-4-4-4-4-4-4-4-|-4-4-4-4-4-4-4-4-|-5-5-5-5-5-5-5-5-|-5-5-5-5-5-5-5-5-|

E|-0-0-0-0-----0---|-0-0-0-0-----0---|-0-0-0-0-----0---|-----------------|
B|-0-0-0-0-----0---|-0-0-0-0-----0---|-0-0-0-0-----0---|-----------------|
G|-9-9-9-9-----9---|-9-9-9-9-----9---|-9-9-9-9-----9---|-----------------|
D|-9-9-9-9-----9---|-9-9-9-9-----9---|-9-9-9-9-----9---|-4-4-4-4-6-6-6-6-|
A|-7-7-7-7-----7---|-6-6-6-6-----6---|-X-X-X-X-----X---|-4-4-4-4-7-7-7-7-|
E|-----------------|-----------------|-9-9-9-9-----9---|-2-2-2-2-4-4-4-4-|

E|-0-0-0-0-0-0-0-0-|-0-0-0-0-0-0-0-0-|
B|-0-0-0-0-0-0-0-0-|-0-0-0-0-0-0-0-0-|
G|-6-6-6-6-6-6-6-6-|-6-6-6-6-6-6-6-6-|
D|-7-7-7-7-7-7-7-7-|-7-7-7-7-7-7-7-7-|
A|-7-7-7-7-7-7-7-7-|-7-7-7-7-7-7-7-7-|
E|-5-5-5-5-5-5-5-5-|-5-5-5-5-5-5-5-5-|


  Guitar 2 (Let Ring)
E|-----------------|-----------------|-----------------|-----------------|
B|-9-9-9-9-9-9-9-9-|-9-9-9-9-9-9-9-9-|-9-9-9-9-9-9-9-9-|-9-9-9-9-9-9-9-9-|
G|-9-9-9-9-9-9-9-9-|-9-9-9-9-9-9-9-9-|-9-9-9-9-9-9-9-9-|-9-9-9-9-9-9-9-9-|
D|-6-6-6-6-6-6-6-6-|-6-6-6-6-6-6-6-6-|-7-7-7-7-7-7-7-7-|-7-7-7-7-7-7-7-7-|
A|-----------------|-----------------|-----------------|-----------------|
E|-----------------|-----------------|-----------------|-----------------|

E|-----------------|-----------------|-----------------|-----------------|
B|-------9---------|-------9---------|-------9---------|-------9---------|
G|---9--------9----|---9--------9----|---9--------9----|---9--------9----|
D|-9---9-----------|-9---9-----------|-9---9-----------|-9---9-----------|
A|-----------------|-----------------|-----------------|-----------------|
E|-----------------|-----------------|-----------------|-----------------|

E|-----------------|-----------------|-----------------|-----------------|
B|-9-9-9-9-9-9-9-9-|-9-9-9-9-9-9-9-9-|-9-9-9-9-9-9-9-9-|-9-9-9-9-9-9-9-9-|
G|-9-9-9-9-9-9-9-9-|-9-9-9-9-9-9-9-9-|-9-9-9-9-9-9-9-9-|-9-9-9-9-9-9-9-9-|
D|-6-6-6-6-6-6-6-6-|-6-6-6-6-6-6-6-6-|-7-7-7-7-7-7-7-7-|-7-7-7-7-7-7-7-7-|
A|-----------------|-----------------|-----------------|-----------------|
E|-----------------|-----------------|-----------------|-----------------|

E|-----------------|-----------------|-----------------|-----------------|
B|-------9---------|-------9---------|-------9---------|-------9---------|
G|---9--------9----|---9--------9----|---9--------9----|---9--------9----|
D|-9---9-----------|-9---9-----------|-9---9-----------|-----------------|
A|-----------------|-----------------|-----------------|-9---9-----------|
E|-----------------|-----------------|-----------------|-----------------|

E|-----------------|-----------------|
B|-------9---------|-------9---------|
G|---9--------9----|---9--------9----|
D|-7---7-----------|-7---7-----------|
A|-----------------|-----------------|
E|-----------------|-----------------|



VERSE

  Guitars 1 & 2 (Palm Muted)
E|-----------------|-----------------|-----------------|-----------------|
B|-----------------|-----------------|-----------------|-----------------|
G|-----------------|-----------------|-----------------|-----------------|
D|-----------------|-----------------|-----------------|-----------------| x2
A|-2-2-2-2-2-2-2-2-|-2-2-2-2-2-2-2-2-|-7-7-7-7-7-7-7-7-|-7-7-7-7-7-7-7-7-|
E|-0-0-0-0-0-0-0-0-|-0-0-0-0-0-0-0-0-|-5-5-5-5-5-5-5-5-|-5-5-5-5-5-5-5-5-|



BRIDGE

  Guitar 1
E|-----------------|-----------------|-----------------|-----------------|
B|-----------------|-----------------|-----------------|-----------------|
G|-----------------|-----------------|-----------------|-----------------|
D|-6-6-6-6-6-6-6-6-|-6-6-6-6-6-6-6-6-|-7-7-7-7-7-7-7-7-|-7-7-7-7-7-7-7-7-|
A|-7-7-7-7-7-7-7-7-|-7-7-7-7-7-7-7-7-|-7-7-7-7-7-7-7-7-|-7-7-7-7-7-7-7-7-|
E|-4-4-4-4-4-4-4-4-|-4-4-4-4-4-4-4-4-|-5-5-5-5-5-5-5-5-|-5-5-5-5-5-5-5-5-|

E|-0-0-0-0-----0---|-0-0-0-0-----0---|-0-0-0-0-----0---|-0-0-0-0-----0---|
B|-0-0-0-0-----0---|-0-0-0-0-----0---|-0-0-0-0-----0---|-0-0-0-0-----0---|
G|-9-9-9-9-----9---|-9-9-9-9-----9---|-9-9-9-9-----9---|-6-6-6-6-----6---|
D|-9-9-9-9-----9---|-9-9-9-9-----9---|-9-9-9-9-----9---|-7-7-7-7-----7---|
A|-7-7-7-7-----7---|-6-6-6-6-----6---|-X-X-X-X-----X---|-7-7-7-7-----7---|
E|-----------------|-----------------|-9-9-9-9-----9---|-5-5-5-5-----5---|

E|-0-0-0-0-0-0-0-0-|-0-0-0-0-0-0-0-0-|
B|-0-0-0-0-0-0-0-0-|-0-0-0-0-0-0-0-0-|
G|-8-8-8-8-8-8-8-8-|-8-8-8-8-8-8-8-8-|
D|-9-9-9-9-9-9-9-9-|-9-9-9-9-9-9-9-9-|
A|-9-9-9-9-9-9-9-9-|-9-9-9-9-9-9-9-9-|
E|-7-7-7-7-7-7-7-7-|-7-7-7-7-7-7-7-7-|


  Guitar 2
E|-----------------|-----------------|-----------------|-----------------|
B|-----------------|-----------------|-----------------|-----------------|
G|-----------------|-----------------|-----------------|-----------------|
D|-----------------|-----------------|-----------------|-----------------|
A|-----------------|-----------------|-----------------|-----------------|
E|/12--------------|-11--------------|/16--------------|-16\-------------|

E|-----------------|-----------------|-----------------|-----------------|
B|-------7-9-7---7-|-------7-97------|---------7---97--|-------------7---|
G|---9---------9---|---9-------9-6-9-|---9-6-9---9---9-|---9-6-9-6-9---9-|
D|-9---9-----------|-9---9-----------|-----------------|-----------------|
A|-----------------|-----------------|-----------------|-----------------|
E|-----------------|-----------------|-----------------|-----------------|

E|-----------------|-----------------|
B|-7---------------|---5-5-5-5-5-5-5-|
G|-----------------|---4-4-4-4-4-4-4-|
D|-----------------|-----------------|
A|-----------------|-----------------|
E|-----------------|-----------------|



PRE-CHORUS

  Guitar 1 (Palm Muted)
E|-----------------|-----------------|-----------------|-----------------|
B|-----------------|-----------------|-----------------|-----------------|
G|-----------------|-----------------|-----------------|-----------------|
D|-----------------|-----------------|-----------------|-----------------|
A|-7-7-7-7-7-7-7-7-|-7-7-7-7-7-7-7-7-|-7-7-7-7-7-7-7-7-|-7-7-7-7-7-------|
E|-4-4-4-4-4-4-4-4-|-4-4-4-4-4-4-4-4-|-5-5-5-5-5-5-5-5-|-5-5-5-5-5-------|

E|-0-0-0-0-----0---|-0-0-0-0-----0---|-----------------|-----------------|
B|-0-0-0-0-----0---|-0-0-0-0-----0---|-----------------|-----------------|
G|-9-9-9-9-----9---|-9-9-9-9-----9---|-----------------|-----------------|
D|-9-9-9-9-----9---|-9-9-9-9-----9---|-9-9-9-9-9-9-9-9-|-7-7-7-7-7-7-7-7-|
A|-7-7-7-7-----7---|-6-6-6-6-----6---|-9-9-9-9-9-9-9-9-|-7-7-7-7-7-7-7-7-|
E|-----------------|-----------------|-7-7-7-7-7-7-7-7-|-5-5-5-5-5-5-5-5-|


  Guitar 2
E|-----------------|-----------------|-0---------------|-----------------|
B|-----------------|-----------------|-0---------------|-----------------|
G|-----------------|-----------------|-6---------------|-----------------|
D|-6---------------|-----------------|-7---------------|-----------------|
A|-7---------------|-----------------|-7---------------|-----------------|
E|-4---------------|-----------------|-5---------------|-----------------|

E|-0-0-0-0-----0---|-0-0-0-0-----0---|-----------------|-----------------|
B|-0-0-0-0-----0---|-0-0-0-0-----0---|-----------------|-----------------|
G|-1-1-1-1-----1---|-9-9-9-9-----9---|-----------------|-----------------|
D|-2-2-2-2-----2---|-9-9-9-9-----9---|-9-9-9-9-9-9-9-9-|-7-7-7-7-7-7-7-7-|
A|-2-2-2-2-----2---|-6-6-6-6-----6---|-X-X-X-X-X-X-X-X-|-X-X-X-X-X-X-X-X-|
E|-0-0-0-0-----0---|-----------------|-7-7-7-7-7-7-7-7-|-5-5-5-5-5-5-5-5-|



OUTRO - CHORUS

  Guitar 1
E|-----------------|-----------------|-----------------|-----------------|
B|-----------------|-----------------|-----------------|-----------------|
G|-----------------|-----------------|-----------------|-----------------|
D|-6-6-6-6-6-6-6-6-|-6-6-6-6-6-6-6-6-|-7-7-7-7-7-7-7-7-|-7-7-7-7-7-7-7-7-|
A|-7-7-7-7-7-7-7-7-|-7-7-7-7-7-7-7-7-|-7-7-7-7-7-7-7-7-|-7-7-7-7-7-7-7-7-|
E|-4-4-4-4-4-4-4-4-|-4-4-4-4-4-4-4-4-|-5-5-5-5-5-5-5-5-|-5-5-5-5-5-5-5-5-|

E|-0-0-0-0-----0---|-0-0-0-0-----0---|-0-0-0-0-----0---|-0-0-0-0-----0---|
B|-0-0-0-0-----0---|-0-0-0-0-----0---|-0-0-0-0-----0---|-0-0-0-0-----0---|
G|-9-9-9-9-----9---|-9-9-9-9-----9---|-9-9-9-9-----9---|-9-9-9-9-----9---|
D|-9-9-9-9-----9---|-9-9-9-9-----9---|-9-9-9-9-----9---|-9-9-9-9-----9---|
A|-7-7-7-7-----7---|-6-6-6-6-----6---|-X-X-X-X-----X---|-X-X-X-X-----X---|
E|-----------------|-----------------|-9-9-9-9-----9---|-9-9-9-9-----9---|

E|-----------------|-----------------|-----------------|-----------------|
B|-----------------|-----------------|-----------------|-----------------|
G|-----------------|-----------------|-----------------|-----------------|
D|-6-6-6-6-6-6-6-6-|-6-6-6-6-6-6-6-6-|-7-7-7-7-7-7-7-7-|-7-7-7-7-7-7-7-7-|
A|-7-7-7-7-7-7-7-7-|-7-7-7-7-7-7-7-7-|-7-7-7-7-7-7-7-7-|-7-7-7-7-7-7-7-7-|
E|-4-4-4-4-4-4-4-4-|-4-4-4-4-4-4-4-4-|-5-5-5-5-5-5-5-5-|-5-5-5-5-5-5-5-5-|

E|-0-0-0-0-----0---|-0-0-0-0-----0---|-0-0-0-0-----0---|-----------------|
B|-0-0-0-0-----0---|-0-0-0-0-----0---|-0-0-0-0-----0---|-----------------|
G|-9-9-9-9-----9---|-9-9-9-9-----9---|-9-9-9-9-----9---|-----------------|
D|-9-9-9-9-----9---|-9-9-9-9-----9---|-9-9-9-9-----9---|-4-4-4-4-6-6-6-6-|
A|-7-7-7-7-----7---|-6-6-6-6-----6---|-X-X-X-X-----X---|-4-4-4-4-7-7-7-7-|
E|-----------------|-----------------|-9-9-9-9-----9---|-2-2-2-2-4-4-4-4-|

E|-0-0-0-0-0-0-0-0-|-0-0-0-0-0-0-0-0-|-----------------|
B|-0-0-0-0-0-0-0-0-|-0-0-0-0-0-0-0-0-|-----------------|
G|-6-6-6-6-6-6-6-6-|-6-6-6-6-6-6-6-6-|-----------------|
D|-7-7-7-7-7-7-7-7-|-7-7-7-7-7-7-7-7-|-----------------|
A|-7-7-7-7-7-7-7-7-|-7-7-7-7-7-7-7-7-|-2---------------|
E|-5-5-5-5-5-5-5-5-|-5-5-5-5-5-5-5-5-|-0---------------|


  Guitar 2 (Let Ring)
E|-----------------|-----------------|-----------------|-----------------|
B|-9-9-9-9-9-9-9-9-|-9-9-9-9-9-9-9-9-|-9-9-9-9-9-9-9-9-|-9-9-9-9-9-9-9-9-|
G|-9-9-9-9-9-9-9-9-|-9-9-9-9-9-9-9-9-|-9-9-9-9-9-9-9-9-|-9-9-9-9-9-9-9-9-|
D|-6-6-6-6-6-6-6-6-|-6-6-6-6-6-6-6-6-|-7-7-7-7-7-7-7-7-|-7-7-7-7-7-7-7-7-|
A|-----------------|-----------------|-----------------|-----------------|
E|-----------------|-----------------|-----------------|-----------------|

E|-----------------|-----------------|-----------------|-----------------|
B|-------9---------|-------9---------|-------9---------|-------9---------|
G|---9--------9----|---9--------9----|---9--------9----|---9--------9----|
D|-9---9-----------|-9---9-----------|-9---9-----------|-9---9-----------|
A|-----------------|-----------------|-----------------|-----------------|
E|-----------------|-----------------|-----------------|-----------------|

E|-----------------|-----------------|-----------------|-----------------|
B|-9-9-9-9-9-9-9-9-|-9-9-9-9-9-9-9-9-|-9-9-9-9-9-9-9-9-|-9-9-9-9-9-9-9-9-|
G|-9-9-9-9-9-9-9-9-|-9-9-9-9-9-9-9-9-|-9-9-9-9-9-9-9-9-|-9-9-9-9-9-9-9-9-|
D|-6-6-6-6-6-6-6-6-|-6-6-6-6-6-6-6-6-|-7-7-7-7-7-7-7-7-|-7-7-7-7-7-7-7-7-|
A|-----------------|-----------------|-----------------|-----------------|
E|-----------------|-----------------|-----------------|-----------------|

E|-----------------|-----------------|-----------------|-----------------|
B|-------9---------|-------9---------|-------9---------|-------9---------|
G|---9--------9----|---9--------9----|---9--------9----|---9--------9----|
D|-9---9-----------|-9---9-----------|-9---9-----------|-----------------|
A|-----------------|-----------------|-----------------|-9---9-----------|
E|-----------------|-----------------|-----------------|-----------------|

E|-----------------|-----------------|-----------------|
B|-------9---------|-------9---------|-9---------------|
G|---9--------9----|---9--------9----|-9---------------|
D|-7---7-----------|-7---7-----------|-----------------|
A|-----------------|-----------------|-----------------|
E|-----------------|-----------------|-----------------|






            
            
Suggest correction
Creating personal tab
Creating personal tab
You can edit any tab online and save it as your Personal.

You can edit, replace or remove any tab part or add personal notes – all changes will be seen only by you.

Personal tabs can be accessed anytime from any device, even offline.
Learn more »
Give kudos to tab author, rate the tab!
1 2 3 4 5
comments
print report bad tab
guest
You may want to rate the tab now too:
select rating
Wanna post a correction for this tab? Suggest correction