Oops, an error
Loading. Please wait.
We have an official Wedding Singer tab made by UG professional guitarists. Check out the tab »
×
2,347 views 15 this week
1 commentread comment
1 2 3 4 5
x 3
add to favorites
×
Save as Personal and add changes to this tab that will be seen only by you. Learn more ›
×
You can save this tab as Personal to edit and correct it or add notes. All changes will be seen only by you. Learn more »
launch autoscroll
font size
0
reset
guitar tuner
edit
Autoscroll
slow
fast
+/-
esc
set tempo
stop
Author
Difficulty
----------------------------------
 Modern Baseball ~ Wedding Singer
----------------------------------
   Album:     Holy Ghost (2016)

Tuning: Standard



INTRO   (0:00)

G|-----------------------------------------------------------------|
D|-----------------------------------------------------------------|
A|-----------------------------------------------------------------|
E|-8-8-8-8-8-8-8-8-8-8-8-8-8-8-8-8-8-8-8-8-8-8-8-8-8-8-8-8-7-7-7-7-|

G|-----------------------------------------------------------------|
D|-----------------------------------------------------------------|
A|-----------------------------------------------------------------|
E|-5-5-5-5-5-5-5-5-3-3-3-3-3-3-3-3-1-1-1-1-1-1-1-1-1-1-1-1-1-1-1-1-|

G|-----------------------------------------------------------------|
D|-------------------------------------5-5---------------------5-5-|
A|-3-3-3-3-3-3-3-3-3-3-3-3-5-5-5-7-7-7-----7-7-7-7-7-7-7-7-7-7-----|
E|-----------------------------------------------------------------|

G|-----------------------------------------------------------------|
D|-7-7-7-7-7-7-7-7-5-5-5-5-5-5-5-5---------------------------------|
A|---------------------------------8-8-8-8-8-8-8-8-8-8-8-8-8-8-8---|
E|-----------------------------------------------------------------|



VERSE   (0:21)
  "Find it hard to believe tonight..."
G|-----------------------------------------------------------------|
D|-----------------------------------------------------------------|
A|-----------------------------------------------------------------|
E|-----------------------------------------------------------3-3-3-|

G|---------------------------------|
D|---------------------------------|
A|---------------------------------|
E|-5-5-5-5-5-5-5-5-1-1-1-1-1-1-1-1-|

G|-----------------------------------------------------------------|
D|-----------------------------------------------------------------|
A|-----------------------------------------------------------------|
E|-8-8-8-8-8-8-8-8-8-8-8-8-8-8-8-8-8-8-8-8-8-8-8-8-8-8-8-8-7-7-7-7-|

G|-----------------------------------------------------------------|
D|-----------------------------------------------------------------|
A|-----------------------------------------------------------------|
E|-5-5-5-5-5-5-5-5-3-3-3-3-3-3-3-3-2-2-2-2-2-2-2-2-2-2-2-2-2-2-2-2-|



CHORUS   (0:39)
  "Midnight rolls around..."
G|-----------------------------------------------------------------|
D|-----------------------------------------------------------------|
A|-----------------------------------------------------------------|
E|-1~~~------------3~~~------------1~~~------------3~~~------------|

G|-----------------------------------------------------------------|
D|-----------------------------------------------------------------|
A|/8-8-8-8-8-8-8-8-8-8-8-8-8-8-8-8-5-5-5-5-5-5-5-5-5-5-5-5-5-5-5-5-|
E|-----------------------------------------------------------------|

G|-----------------------------------------------------------------|
D|---------------------------------5-5-5-5-5-5-5-5-5-5-5-5-5-5-5-5-|
A|-8-8-8-8-8-8-8-8-8-8-8-8-8-8-8-8---------------------------------|
E|-----------------------------------------------------------------|



INTERLUDE  (1:00)

G|-----------------------------------------------------------------|
D|-----------------------------------------------------------------|
A|-----------------------------------------------------------------|
E|-8-8-8-8-8-8-8-8-8-8-8-8-8-8-8-8-8-8-8-8-8-8-8-8-8-8-8-8-7-7-7-7-|

G|-----------------------------------------------------------------|
D|-----------------------------------------------------------------|
A|-----------------------------------------------------------------|
E|-5-5-5-5-5-5-5-5-3-3-3-3-3-3-3-3-1-1-1-1-1-1-1-1-1-1-1-1-1-1-1---|



VERSE   (1:11)
  "Said goodbye from the front porch..."
G|-----------------------------------------------------------------|
D|-----------------------------------------------------------------|
A|-3-------------3-----------------3-3-----------3-----------------|
E|-----------------------------------------------------------------|

G|---------------------------------|
D|---------------------------------|
A|-0-------------------------------|
E|---------------1-----------------|

G|-----------------------------------------------------------------|
D|-----------2-3-2---------------------------2-3-2-----------------|
A|-3---3---3-------3---3-----------3---3---3-------3---3---2-2-2-2-|
E|-------------------------3-0-3-0---------------------------------|

G|-----------------------------------------------------------------|
D|-----------------------------------------------------------------|
A|-0-0-------------------------------------------------------------|
E|-----------------3-3-------------2-2-----------2-----------------|



PRE-CHORUS   (1:29)
  "Of an honest one..."
G|-----------------------------------------------------------------|
D|-----------------------------------------------------------------|
A|-0-0-------------------------------------------------------------|
E|-----------------3-3-------------2-2-----------2-----------------|

G|-----------------------------------------------------------------|
D|-----------------------------------------------------------------|
A|-----------------------------------------------------------------|
E|-5-5-5-5-5-5-5-5-7-7-7-7-7-7-7-7-8-8-8-8-7-7-7-7-5-5-5-5-3-3-3-3-|

G|-----------------------------------------------------------------|
D|-----------------------------------------------------------------|
A|-----------------------------------------------------------------|
E|-1-1-1-1-1-1-1-1-1-1-1-1-1-1-1-1-3-3-3-3-3-3-3-3-3-3-3-3-3-3-3-3-|



CHORUS  (1:45)
  "Midnight rolls around..."
G|-----------------------------------------------------------------|
D|-----------------------------------------------------------------|
A|-----------------------------------------------------------------|
E|-1-1-1-1-1-1-1-1-1-1-1-1-1-------3-3-3-3-3-3-3-3-3-3-3-3-3-3-3-3-|

G|-----------------------------------------------------------------|
D|-----------------------------------------------------------------|
A|-----------------------------------------------------------------|
E|-5-5-5-5-5-5-5-5-5-5-5-5-5-5-5-5-7-7-7-7-7-7-7-7-8-8-8-8-7-7-7-7-|

G|-----------------------------------------------------------------|
D|-----------------------------------------------------------------|
A|---------------------------------5-5-5-5-5-5-5-5-5-5-5-5-5-5-5-5-|
E|-1-1-1-1-1-1-1-1-1-1-1-1-1-1-1-1---------------------------------|

G|-----------------------------------------------------------------|
D|-----------------------------------------------------------------|
A|-----------------------------------------------------------------|
E|-1-1-1-1-1-1-1-1-1-1-1-1-1-1-1-1-3-3-3-3-3-3-3-3-3-3-3-3-3-3-3-3-|



OUTRO  (2:06)

G|-----------------------------------------------------------------|
D|-----------------------------------------------------------------|
A|-----------------------------------------------------------------|
E|-8-8-8-8-8-8-8-8-8-8-8-8-8-8-8-8-8-8-8-8-8-8-8-8-8-8-8-8-7-7-7-7-|

G|-----------------------------------------------------------------|
D|-----------------------------------------------------------------|
A|-----------------------------------------------------------------|
E|-5-5-5-5-5-5-5-5-3-3-3-3-3-3-3-3-1-1-1-1-1-1-1-1-1-1-1-1-1-1-1-1-|

G|-----------------------------------------------------------------|
D|-------------------------------------5-5---------------------5-5-|
A|-3-3-3-3-3-3-3-3-3-3-3-3-5-5-5-7-7-7-----7-7-7-7-7-7-7-7-7-7-----|
E|-----------------------------------------------------------------|

G|-----------------------------------------------------------------|
D|-7-7-7-7-7-7-7-7-5-5-5-5-5-5-5-5---------------------------------|
A|---------------------------------8-8-8-8-8-8-8-8-8-8-8-8-8-8-8---|
E|-----------------------------------------------------------------|

G|-----------------------------------------------------------------|
D|-----------------------------------------------------------------|
A|-----------------------------------------------------------------|
E|-5-5-5-5-5-5-5-5-3-3-3-3-3-3-3-3-1-1-1-1-1-1-1-1-1-1-1-1-1-1-1-1-|

G|-----------------------------------------------------------------|
D|-----------------------------------------------------------------|
A|-----------------3-3-3-3-3-3-3-3---------------------------------|
E|-5-5-5-5-5-5-5-5-----------------2-2-2-2-2-2-2-2-2-2-2-2-2-2-2-2-|

G|-----------------|
D|-----------------|
A|-----------------|
E|-1~~~------------|







            
            
Suggest correction
Creating personal tab
Creating personal tab
You can edit any tab online and save it as your Personal.

You can edit, replace or remove any tab part or add personal notes – all changes will be seen only by you.

Personal tabs can be accessed anytime from any device, even offline.
Learn more »
Give kudos to tab author, rate the tab!
1 2 3 4 5
comments
print report bad tab
1 comment total.
0 reply
joefullersemail 10 Oct 29, 2017 10:34 PM

good song i really like it

guest
You may want to rate the tab now too:
select rating
Wanna post a correction for this tab? Suggest correction