Oops, an error
Loading. Please wait.
We have an official Wedding Singer tab made by UG professional guitarists. Check out the tab »
×

Wedding Singer Acoustic tab

version 2
version 2

Whole song

  • This is the lead guitar of the acoustic version th... Show more

Interactive

511 views 12 this week
no commentswrite comment
1 2 3 4 5
3 more votes to show rating
add to favorites
×
Save as Personal and add changes to this tab that will be seen only by you. Learn more ›
×
You can save this tab as Personal to edit and correct it or add notes. All changes will be seen only by you. Learn more »
launch autoscroll
font size
0
reset
how to read this tab
guitar tuner
edit
Autoscroll
slow
fast
+/-
esc
set tempo
stop
Author
Difficulty
About this tab version
This is the lead guitar of the acoustic version they play of the song linked in the two YouTube videos in the tab. Was this info helpful? Yes No
Live @ Rolling Stone Australia: https://www.youtube.com/watch?v=3ESdOSb2UYQ
NME Basement Sessions: https://www.youtube.com/watch?v=TYCgV3_ZRz4

So the lead part is REALLY simple.

The intro is played like this:

(// or / denotes a slide, b denotes a bend)

e|--8--7--5--------------------------|--8--7--5--------------------------|
B|-----------8--5--------------------|-----------8--3--------------------|
G|-------------------5//10--9--7--5--|-------------------5//10--9--7--5--|
D|-----------------------------------|-----------------------------------|
A|-----------------------------------|-----------------------------------|
E|-----------------------------------|-----------------------------------|

e|--8--7--5--------------------------|--8--7--5--------------------------|
B|-----------8--5--------------------|-----------8--3--------------------|
G|-------------------5//10--9--7--5--|-------------------5//10--9--7b----|
D|-----------------------------------|-----------------------------------|
A|-----------------------------------|-----------------------------------|
E|-----------------------------------|-----------------------------------|

Then when he sings "we're gonna stamp out the sorry feeling," you play this:

e|-----------------------------------------------------------------------|
B|-5---5---5---5---5---5---5---5/6-5---5---5---5---8---8---8---8---1---1-|
G|-5---5---5---5---5---5---5---5---5---5---5---5---9---9---9---9---2---2-|
D|-----------------------------------------------------------------------|
A|-----------------------------------------------------------------------|
E|-----------------------------------------------------------------------|

e|-----------------------------------------------------------------------|
B|-1---1---5---5---5---5---1---1---1---1---1---1---1---1-----------------|
G|-2---2---5---5---5---5---2---2---2---2---2---2---2---2-----------------|
D|-----------------------------------------------------------------------|
A|-----------------------------------------------------------------------|
E|-----------------------------------------------------------------------|

"Midnight rolls around..."

(Let ring)

e|-----------------------------------|-----------------------------------|
B|-----------------------------------|-----------------------------------|
G|-----------------------------------|-----------------------------------|
D|-3---------------5-----------------|-3----------------5----------------|
A|-3---------------5-----------------|-3----------------5----------------|
E|-1---------------3-----------------|-1----------------3----------------|

"Left the T.V. flickering..."

(Palm muted)

e|---------------------------------|
B|---------------------------------|
G|---------------------------------|
D|--3---3---3---3---3---3---3---3--| (x2)
A|--3---3---3---3---3---3---3---3--|
E|--1---1---1---1---1---1---1---1--|

e|---------------------------------|
B|---------------------------------|
G|---------------------------------|
D|--7---7---7---7---7---7---7---7--| (x2)
A|--7---7---7---7---7---7---7---7--|
E|--5---5---5---5---5---5---5---5--|

e|---------------------------------|
B|---------------------------------|
G|---------------------------------|
D|--3---3---3---3---3---3---3---3--| (x2)
A|--3---3---3---3---3---3---3---3--|
E|--1---1---1---1---1---1---1---1--|

e|---------------------------------|
B|---------------------------------|
G|---------------------------------|
D|--5---5---5---5---5---5---5---5--| (x2)
A|--5---5---5---5---5---5---5---5--|
E|--3---3---3---3---3---3---3---3--|

[End of Chorus 1]
e|--8--7--5--------------------------|--8--7--5--------------------------|
B|-----------8--5--------------------|-----------8--3b-------------------|
G|-------------------5//10--9--7--5--|-------------------5//10--9--7b----|
D|-----------------------------------|-----------------------------------|
A|-----------------------------------|-----------------------------------|
E|-----------------------------------|-----------------------------------|

So from "Locked your love in a screenshot" to "Wishin' I could say that I don't" in the lyrics you just strum
muted strings, then you play this:

(Let ring):
e|-----------------------------------|-----------------------------------|
B|--5-------------8-----------5------|--5------------8------------5------|
G|--5-------------9-----------5------|--5------------9------------5------|
D|-----------------------------------|-----------------------------------|
A|-----------------------------------|-----------------------------------|
E|-----------------------------------|-----------------------------------|

"Conviction, blacked out friction..."

e|---------------------------------|---------------------------------|
B|---------------------------------|---------------------------------|
G|---------------------------------|---------------------------------|
D|--7---7---7---7---7---7---7---7--|--9---9---9---9---9---9---9---9--|
A|--7---7---7---7---7---7---7---7--|--9---9---9---9---9---9---9---9--|
E|--5---5---5---5---5---5---5---5--|--7---7---7---7---7---7---7---7--|


e|-------------------------------|-------------------------------------|
B|-------------------------------|-------------------------------------|
G|-------------------------------|-------------------------------------|
A|--101010-10-999-9-777-7-555-5--|--333-3---3---3---3---3---3---3---3--|
A|--101010-10-999-9-777-7-555-5--|--333-3---3---3---3---3---3---3---3--|
E|--8-8-8--8--777-7-555-5-333-3--|--111-1---1---1---1---1---1---1---1--|

e|---------------------------------|---------------------------------|
B|---------------------------------|---------------------------------|
G|---------------------------------|---------------------------------|
D|--3---3---3---3---3---3---3---3--|--5---5---5---5---5---5---5---5--|
A|--3---3---3---3---3---3---3---3--|--5---5---5---5---5---5---5---5--|
E|--1---1---1---1---1---1---1---1--|--3---3---3---3---3---3---3---3--|

e|---------------------------------|
B|---------------------------------|
G|---------------------------------|
D|--5---5---5---5---5---5---5---5--|
A|--5---5---5---5---5---5---5---5--|
E|--3---3---3---3---3---3---3---3--|

"Until midnight rolls around..."

(Palm mute until last one):
e|---------------------------------|---------------------------------|
B|---------------------------------|---------------------------------|
G|---------------------------------|---------------------------------|
D|--3---3---3---3---3---3---3---3--|--3---3---3---3---3--------------|
A|--3---3---3---3---3---3---3---3--|--3---3---3---3---3--------------|
E|--1---1---1---1---1---1---1---1--|--1---1---1---1---1--------------|

"I thought you heard me..."

e|---------------------------------|
B|---------------------------------|
G|---------------------------------|
D|--5---5---5---5---5---5---5---5--| (x2)
A|--5---5---5---5---5---5---5---5--|
E|--3---3---3---3---3---3---3---3--|

e|---------------------------------|
B|---------------------------------|
G|---------------------------------|
D|--7---7---7---7---7---7---7---7--| (x2)
A|--7---7---7---7---7---7---7---7--|
E|--5---5---5---5---5---5---5---5--|

e|---------------------------------|
B|---------------------------------|
G|---------------------------------|
D|--9---9---9---9---9---9---9---9--| (x1)
A|--9---9---9---9---9---9---9---9--|
E|--7---7---7---7---7---7---7---7--|

e|-------------------------------|
B|-------------------------------|
G|-------------------------------|
A|--101010-10-999-9--------------|
A|--101010-10-999-9--------------|
E|--8-8-8--8--777-7--------------|

"Left the T.V. flickering...."

e|---------------------------------|
B|---------------------------------|
G|---------------------------------|
D|--3---3---3---3---3---3---3---3--| (x2)
A|--3---3---3---3---3---3---3---3--|
E|--1---1---1---1---1---1---1---1--|

e|---------------------------------|
B|---------------------------------|
G|---------------------------------|
D|--7---7---7---7---7---7---7---7--| (x2)
A|--7---7---7---7---7---7---7---7--|
E|--5---5---5---5---5---5---5---5--|

e|---------------------------------|
B|---------------------------------|
G|---------------------------------|
D|--3---3---3---3---3---3---3---3--| (x2)
A|--3---3---3---3---3---3---3---3--|
E|--1---1---1---1---1---1---1---1--|

e|---------------------------------|
B|---------------------------------|
G|---------------------------------|
D|--5---5---5---5---5---5---5---5--| (x2)
A|--5---5---5---5---5---5---5---5--|
E|--3---3---3---3---3---3---3---3--|

[Outro]
e|--8--7--5--------------------------|--8--7--5--------------------------|
B|-----------8--5--------------------|-----------8--3--------------------|
G|-------------------5//10--9--7--5--|-------------------5//10--9--7--5--|
D|-----------------------------------|-----------------------------------|
A|-----------------------------------|-----------------------------------|
E|-----------------------------------|-----------------------------------|

e|--8--7--5--------------------------|--8--7--5--------------------------|
B|-----------8--5--------------------|-----------8--3--------------------|
G|-------------------5//10--9--7--5--|-------------------5//10--9--7--5--|
D|-----------------------------------|-----------------------------------|
A|-----------------------------------|-----------------------------------|
E|-----------------------------------|-----------------------------------|

e|--8--7--5--------------------------|--8--7--5-----10-------------------|
B|-----------8--5--------------------|-----------8-----------------------|
G|-------------------5//10--9--7--5--|-------------------5//10--9--7--5--|
D|-----------------------------------|-----------------------------------|
A|-----------------------------------|-----------------------------------|
E|-----------------------------------|-----------------------------------|



************************************

| /  Slide up
| b  Bend

************************************

            
            
Suggest correction
Creating personal tab
Creating personal tab
You can edit any tab online and save it as your Personal.

You can edit, replace or remove any tab part or add personal notes – all changes will be seen only by you.

Personal tabs can be accessed anytime from any device, even offline.
Learn more »
Give kudos to tab author, rate the tab!
1 2 3 4 5
comments
print report bad tab
guest
You may want to rate the tab now too:
select rating
Wanna post a correction for this tab? Suggest correction