Oops, an error
Loading. Please wait.

Dawn bass

483 views 1 this week
no commentswrite comment
1 2 3 4 5
3 more votes to show rating
add to favorites
×
Save as Personal and add changes to this tab that will be seen only by you. Learn more ›
×
You can save this tab as Personal to edit and correct it or add notes. All changes will be seen only by you. Learn more »
launch autoscroll
font size
0
reset
guitar tuner
edit
Autoscroll
slow
fast
+/-
esc
set tempo
stop
Hey UG-community! This is the bass tab for the song "Dawn Chorus" by Modern
English. Standard tuning. 

Tab legend:

/// - Slide up the neck (toward the body of your guitar)
h   - hammer-on
1 & - Timing. In this example it is Beat 1 

Figure 1

|14--12-12h13h14--7--6---------|
|-----------------------7///---|x19
|------------------------------|
|------------------------------|

Figure 2

|----------------------------------------------------------------|
|9-9-9-9-9-9-9-9-9-9-9-9-9-9-9-9-9-9-9-9-9-9-9-9-9-9-9-9-9-9-9-9-|
|----------------------------------------------------------------|
|----------------------------------------------------------------|

Figure 3

|--|------------|--------|------------|--------|
|9-|-7--7h8h9-9-|-6--7/9-|-7--7h8h9-9-|-6--7-9-|
|--|------------|--------|------------|--------|x2
|--|------------|--------|------------|--------|

Figure 4 
                       1 & 2 & 3 & 4 & 1 & 2 & 3 & 4 &
|7-7--7-7--7-7--7-7--7---10--10--10--10--10--10--10--10----------|
|----------------------------------------------------------------|
|----------------------------------------------------------------|
|----------------------------------------------------------------|

THEN REPEAT FIGURE 3 FOR THE REST OF THE SONG

Order:
Fig. 1
Fig. 2
Fig. 3
Fig. 4
Fig. 3


Other tabs by me:

"Holy Water" (guitar) by Bad Company
"Armageddon It" (guitar solo) by Def Leppard
"Jack And Diane" (guitar) by John Mellencamp
"3 AM"(guitar) by Matchbox 20
"Far Away"(guitar) by Nickelback
"Head Over Heels" (guitar) by Tears For Fears
"Shout" (guitar solo) by Tears For Fears
"Laid So Low (Tears Roll Down)" (guitar) by Tears For Fears
"What You Give"(guitar solo) by Tesla

Thnx for checking out my tab. Please comment/rate. 

            
            
Suggest correction
Creating personal tab
Creating personal tab
You can edit any tab online and save it as your Personal.

You can edit, replace or remove any tab part or add personal notes – all changes will be seen only by you.

Personal tabs can be accessed anytime from any device, even offline.
Learn more »
Give kudos to tab author, rate the tab!
1 2 3 4 5
comments
print report bad tab
guest
You may want to rate the tab now too:
select rating
Wanna post a correction for this tab? Suggest correction