Oops, an error
Loading. Please wait.

I Melt With You tab

version 2
version 2

Whole song

5,482 views 30 this week
1 commentread comment
1 2 3 4 5
3 more votes to show rating
add to favorites
×
Save as Personal and add changes to this tab that will be seen only by you. Learn more ›
×
You can save this tab as Personal to edit and correct it or add notes. All changes will be seen only by you. Learn more »
launch autoscroll
font size
0
reset
how to read this tab
guitar tuner
backing track
0:00
0:00
edit
Autoscroll
slow
fast
+/-
esc
set tempo
stop
Author
#----------------------------------PLEASE NOTE--------------------------------#
#This file is the author's own work and represents their interpretation of the#
#song. You may only use this file for private study, scholarship, or research.#
#-----------------------------------------------------------------------------#
#-- File created with Instab - http://www.pconline.com/~smcarey/instab.html --#
#-----------------------------------------------------------------------------#

Author/Artist: Modern English
Title: I Melt With You

/ slide up
\ slide down


Electric Tuning (eb A D G B E), (eb, D) Down ~ 10% or Drop C# (Type A tuning)
Acoustic Drop C# Tuning, (c#, db) Down ~ 10%
Live Standard Tuning
Key: (E + A) or (D + C#)



----|---------|
----|-5---6---|
----|-5---5---|
----|-5---3---|
----|---------|
----|---------|
    

  Intro/Chorus w/ Acoustic 



----|---------------------------------|--|
----|---------------------------------|--|
----|---------------------------------|--|
----|-2-----------2---3-----------3---|--|
----|----3-----3----3----3-----3----5-|--|
----|-------4---------------6---------|--|
    

  Verse




----|-19--17-----17---------------|--|----------|--|
----|-17------20-----20--------20-|--|----------|--|
----|-------------------21--21----|--|----------|--|
----|-----------------------------|--|-17-------|--|
----|-----------------------------|--|----20-19-|--|
----|-----------------------------|--|----------|--|
    

  Interlude 1




----|-----------------------------|--|
----|-----------------------------|--|
----|-----------------------------|--|
----|-----------------------------|--|
----|-----19----------20--19------|--|
----|-16------21--16---------21---|--|
    

  Chorus Fill





----|-19--17------17-------------------19--17------17-19-17----------------------|
----|-17------20-------20--------------17------20-----------20-------------------|
----|---------------------21--21-21-21-------------------------21----------------|
----|----------------------------------------------------------------------------|
----|-------------------------------------------------------------19-19-19-19-19-|
----|----------------------------------------------------------------------------|
  

      A  Interlude 2                   A



--------------------------------|
--------------------------------|
--------------------------------|
--------------------------------|
-19-----------------------------|
-----21----4/9-9--9\4-4--4/9-9--|
           Bass "Mmm mmm mmm"




Intro: C     F     C     F

C                       F
Moving forward using all my breath
C                               F
Making love to you was never second best
C                              F
I saw the world thrashing all around your face
C                                       F
Never really knowing it was always mesh and lace



Chorus:
C                                       F
I’ll stop the world and melt with you
C                                       F
You’ve seen the difference and it’s getting better all the time
C                                     F
There’s nothing you and I won’t do
C                                     F
I’ll stop the world and melt with you



Dream of better lives the kind which never hate
Dropped in the state of imaginary grace
I made a pilgrimage to save this humans race
What I’m comprehending a race that long gone bye



Chorus

Play an Em

The future’s open wide

Solo:   C       F       C       F


Chorus

Em again

The future’s open wide

Hmmm hmmm hmmm
Hmmm hmmm hmmm hmmm
Hmmm hmmm hmmm
Hmmm hmmm hmmm hmmm

Chorus

I’ll stop the world and melt with you

            
            
Suggest correction
Creating personal tab
Creating personal tab
You can edit any tab online and save it as your Personal.

You can edit, replace or remove any tab part or add personal notes – all changes will be seen only by you.

Personal tabs can be accessed anytime from any device, even offline.
Learn more »
Give kudos to tab author, rate the tab!
1 2 3 4 5
comments
print report bad tab
1 comment total.
0 reply
GeneralTHC 10 Nov 03, 2014 07:33 AM

Totally wrong.

guest
You may want to rate the tab now too:
select rating
Wanna post a correction for this tab? Suggest correction