Oops, an error
Loading. Please wait.

Breakthrough Isaacs Part tab

286 views 9 this week
8 commentsread comments
1 2 3 4 5
2 more votes to show rating
add to favorites
×
Save as Personal and add changes to this tab that will be seen only by you. Learn more ›
×
You can save this tab as Personal to edit and correct it or add notes. All changes will be seen only by you. Learn more »
launch autoscroll
font size
0
reset
how to read this tab
guitar tuner
edit
Autoscroll
slow
fast
+/-
esc
set tempo
stop
Author
Difficulty
-------------------------------------------------------------------------------
                 BREAKTHROUGH(Isaac Brock's Part) - Modest Mouse
-------------------------------------------------------------------------------
Tabbed by: Isaac
E-mail: talleyi21@gmail.com

NOTE: I was able to decipher Isaac's part by ear and by watching live performances. There are two
guitar parts on the recording, but this is just a tab of Isaac Brock's part specifically. I may 
also make a tab for the second guitar part some time in the future. Any corrections are welcome,
but I am confident this is correct.

Tuning: E A D G B e


************************************

KEY

| w~~ flutter whammy bar
| w/  whammy bar pitch up
| w\  whammy bar pitch down 
(note that an additional / or \ means return to original pitch)
| *   pinch harmonic
| /   slide up
| \   slide down
| h   hammer-on
| p   pull-off
| ~   vibrato
| +   harmonic
| x   Mute note
| b   Bend
| pb  Pre-bend
| br  Bend release
| pbr Pre-bend release
| brb Bend release bend

************************************
INTRO:
(palm muted)

         (B minor)           (A five)             (D Major)           (G five)
e|-------------------------------------------------------------------------------|
B|-------------------------------------------------------------------------------|
G|-------------------------------------------------------------------------------| (x3)
D|-------------------------------------------4----4----4----4--------------------|
A|--5----5----5----5----7----7----7----7-----5----5----5----5----5----5----5----5|
E|--7----7----7----7----5----5----5----5-------------------------3----3----3----3|


FIRST CHORUS ("Oh, let it break through"):
(Isaac Brock varies the strumming pattern here quite a bit, but this is the general rhythm.
On each chord the open b string rings out occasionally--strum with feeling!)

 (B minor)                 (D Major)
e|----------------------------------------------------|
B|7--7--7--7-7-7--7--7--0-0-7--7--7--7-7-7--7--7--0-0-|
G|7--7--7--7-7-7--7--7--0-0-x--x--x--x-x-x--x--x--0-0-| 
D|0--0--0--0-0-0--0--0--0-0-7--7--7--7-7-7--7--7--0-0-|
A|x--x--x--x-x-x--x--x--x-x-5--5--5--5-5-5--5--5--x-x-|
E|7--7--7--7-7-7--7--7--x-x-x--x--x--x-x-x--x--x--x-x-|
                                                                        
 (F# five/sus4)                    (G five/Major)
e|--------------------------------------------------------------------|
B|x---0---0---0-----x---0---0---0-0-x---0---0---0-----x---0---0---0-0-|
G|11--11--11--11-11-11--11--11--0-0-12--12--12--12-12-12--12--12--0-0-| 
D|11--11--11--11-11-11--11--11--0-0-12--12--12--12-12-12--12--12--0-0-|
A|9---9---9---9--9--9---9---9---x-x-10--10--10--10-10-10--10--10--x-x-|
E|x---x---x---x--x--x---x---x---x-x-x---x---x---x--x--x---x---x---x-x-|

 (B minor 7)               (D Major)
e|----------------------------------------------------|
B|0--0--0--0-0-0--0--0--0-0----0--0--0------0--0--0-0-|
G|x--x--x--x-x-x--x--x--0-0-x--x--x--x-x-x--x--x--0-0-| 
D|7--7--7--7-7-7--7--7--0-0-4--4--4--4-4-4--4--4--0-0-|
A|5--5--5--5-5-5--5--5--x-x-5--5--5--5-5-5--5--5--x-x-|
E|7--7--7--7-7-7--7--7--x-x-x--x--x--x-x-x--x--x--x-x-|

 (F# sus4)                 (G Major)          
e|----------------------------------------------------|
B|0--0--0--0-0-0--0--0--0-0-0--0--0--0--0--0----0-----|
G|------------------------0-x--x--x--x--x--x----0-----| 
D|4--4--4--4-4-4--4--4--4-0-5--5--5--5--5--5----0-----|
A|4--4--4--4-4-4--4--4--4-x-5--5--5--5--5--5----x-----|
E|2--2--2--2-2-2--2--2--2-x-3--3--3--3--3--3----x-----|

 (B minor 7)               (D Major)
e|----------------------------------------------------|
B|0--0--0---------0--0--0-0----------0-0-0--0-----0-0-|
G|x--x--x--x-x-x--x--x--0-0-x--x--x--x-x-x--x--x--0-0-| 
D|7--7--7--7-7-7--7--7--0-0-4--4--4--4-4-4--4--4--0-0-|
A|5--5--5--5-5-5--5--5--x-x-5--5--5--5-5-5--5--5--x-x-|
E|7--7--7--7-7-7--7--7--x-x-x--x--x--x-x-x--x--x--x-x-|

 (F# five/sus4             (G Major)           (let ring)
e|----------------------------------------------------|
B|0--------0-0-0--0-------0-0--0--0--0--0-0-0-0-0-----|
G|------------------------0-x--x--x--x--x-x-x-x-x-----| 
D|4--4--4--4-4-4--4--4--4-0-5--5--5--5--5-5-5-5-5-----|
A|4--4--4--4-4-4--4--4--4-x-5--5--5--5--5-5-5-5-5-----|
E|2--2--2--2-2-2--2--2--2-x-3--3--3--3--3-3-3-3-3-----|


VERSE:
(palm muted)

 (B minor)                 (D Major)      
e|----------------------------------------------------|
B|----------------------------------------------------|
G|----------------------------------------------------|
D|--------------------------4--4--4--4-4-4--4--4--4-4-|
A|5--5--5--5-5-5--5--5--5-5-5--5--5--5-5-5--5--5--5-5-|
E|7--7--7--7-7-7--7--7--7-7---------------------------|
                                                          (x4)
 (F# five)                 (G five)
e|----------------------------------------------------|
B|----------------------------------------------------|
G|----------------------------------------------------|
D|----------------------------------------------------|
A|4--4--4--4-4-4--4--4--4-4-5--5--5--5-5-5--5--5--5-5-|
E|2--2--2--2-2-2--2--2--2-2-3--3--3--3-3-3--3--3--3-3-|


SECOND CHORUS:


(B minor 7)                (D Major)
e|----------------------------------------------------|
B|0--0--0--0-0-0--0--0--0-0-----------------------0-0-|
G|x--x--x--x-x-x--x--x--0-0-x--x--x--x-x-x--x--x--0-0-| 
D|7--7--7--7-7-7--7--7--0-0-4--4--4--4-4-4--4--4--0-0-|
A|5--5--5--5-5-5--5--5--x-x-5--5--5--5-5-5--5--5--x-x-|
E|7--7--7--7-7-7--7--7--x-x-x--x--x--x-x-x--x--x--x-x-|

 (F# five/sus4)            (G Major)          
e|---------------------------------------------------|
B|----------------0--0--0-0-0--0--0--0--0--0--0--0---|
G|x--x--x--x-x-x--x--x--x-0-x--x--x--x--x--x--x--0---| 
D|4--4--4--4-4-4--4--4--4-0-5--5--5--5--5--5--5--0---|
A|4--4--4--4-4-4--4--4--4-x-5--5--5--5--5--5--5--x---|
E|2--2--2--2-2-2--2--2--2-x-3--3--3--3--3--3--3--x---|

(B minor 7)                (D Major)
e|----------------------------------------------------|
B|0--0--0--0-0-0--0--0--0-0-----------------------0-0-|
G|x--x--x--x-x-x--x--x--0-0-x--x--x--x-x-x--x--x--0-0-| 
D|7--7--7--7-7-7--7--7--0-0-4--4--4--4-4-4--4--4--0-0-|
A|5--5--5--5-5-5--5--5--x-x-5--5--5--5-5-5--5--5--x-x-|
E|7--7--7--7-7-7--7--7--x-x-x--x--x--x-x-x--x--x--x-x-|

 (F# five)                 (G five)          
e|---------------------------------------------------|
B|---------------------------------------------------|
G|------------------------0----------------------0---| 
D|4--4--4--4-4-4--4--4--4-0-5--5--5--5--5--5--5--0---|
A|4--4--4--4-4-4--4--4--4-x-5--5--5--5--5--5--5--x---|
E|2--2--2--2-2-2--2--2--2-x-3--3--3--3--3--3--3--x---|

(B minor 7)                (D Major)
e|----------------------------------------------------|
B|0--0--0--0-0-0--0--0--0-0-----------------------0-0-|
G|x--x--x--x-x-x--x--x--0-0-x--x--x--x-x-x--x--x--0-0-| 
D|7--7--7--7-7-7--7--7--0-0-4--4--4--4-4-4--4--4--0-0-|
A|5--5--5--5-5-5--5--5--x-x-5--5--5--5-5-5--5--5--x-x-|
E|7--7--7--7-7-7--7--7--x-x-x--x--x--x-x-x--x--x--x-x-|

 (F# sus4)                 (G Major)   (let ring)       
e|-----------------------------------------------|
B|0--0--0--0-0-0--0--0--0-0-0--0--0--0--0--------|
G|------------------------0-x--x--x--x--x--------| 
D|4--4--4--4-4-4--4--4--4-0-5--5--5--5--5--------|
A|4--4--4--4-4-4--4--4--4-x-5--5--5--5--5--------|
E|2--2--2--2-2-2--2--2--2-x-3--3--3--3--3--------|


VERSE 2: 
(palm muted)

 (B minor)                 (D Major)      
e|-----------------------------------------------------|
B|(0)--------------------------------------------------|
G|-----------------------------------------------------|
D|---------------------------4--4--4--4-4-4--4--4--4-4-|
A|-5--5--5--5-5-5--5--5--5-5-5--5--5--5-5-5--5--5--5-5-|
E|-7--7--7--7-7-7--7--7--7-7---------------------------|
                                                          (x4)
 (F# five)                 (G five)
e|-----------------------------------------------------|
B|-----------------------------------------------------|
G|-----------------------------------------------------|
D|-----------------------------------------------------|
A|-4--4--4--4-4-4--4--4--4-4-5--5--5--5-5-5--5--5--5-5-|
E|-2--2--2--2-2-2--2--2--2-2-3--3--3--3-3-3--3--3--3-3-|


THIRD CHORUS:


(B minor 7)                (D Major 6)
e|----------------------------------------------------|
B|0--0--0--0-0-0--0--0--0-0-0--0--0--0-0-x--x--x--0-0-|
G|x--x--x--x-x-x--x--x--0-0-x--x--x--x-x-x--x--x--0-0-| 
D|7--7--7--7-7-7--7--7--0-0-4--4--4--4-4-4--4--4--0-0-|
A|5--5--5--5-5-5--5--5--x-x-5--5--5--5-5-5--5--5--x-x-|
E|7--7--7--7-7-7--7--7--x-x-x--x--x--x-x-x--x--x--x-x-|
                                                                        
 (F# five)                         (G five)      
e|-----------------------------------------------------------------|
B|0---0---0---0--x--x---x---x---0-0-x---x---x---x---x--+5w/\----0--|
G|x---x---x---0-/11-11--11--11--0-0-12--12--12--12--x-----------0--| 
D|11--11--11--11-11-11--11--11--0-0-12--12--12--12--x-----------0--|
A|9---9---9---9--9--9---9---9---x-x-10--10--10--10--x-----------x--|
E|x---x---x---x--x--x---x---x---x-x-x---x---x---x---------------x--|

(B minor 7)                (D Major 9)
e|----------------------------------------------------|
B|0--0--0--0-0-0--0--0--0-0-5--5--5--5-5-5--5--5--0-0-|
G|x--x--x--x-x-x--x--x--0-0-x--x--x--x-x-x--x--x--0-0-| 
D|7--7--7--7-7-7--7--7--0-0-4--4--4--4-4-4--4--4--0-0-|
A|5--5--5--5-5-5--5--5--x-x-5--5--5--5-5-5--5--5--x-x-|
E|7--7--7--7-7-7--7--7--x-x-x--x--x--x-x-x--x--x--x-x-|

 (F# five)                 (G five)        (let ring)       
e|-------------------------------------------------|
B|2--2--2--2-x-------0--0-0------------------------|
G|2--2--2--2-x-x--x--x--x-0-x--x--x--x-x-x--x------| (guitar distorts)
D|4--4--4--4-4-4--4--4--4-0-5--5--5--5-5-5--5------|
A|4--4--4--4-4-4--4--4--4-x-5--5--5--5-5-5--5------|
E|2--2--2--2-2-2--2--2--2-x-3--3--3--3-3-3--3------|


SOlO:
(guitar becomes distorted and stays that way for the rest of the song)

e|-----------------------------------------------|
B|-----------------------------------------------|
G|-----------------------------------------------|
D|-------------7--5--4----------------7--5--4----|
A|----5-----5----------------5-----5-------------|
E|-7-----7----------------7-----7----------------|
                                                          (x2)
e|-----------------------------------------------------|
B|-----------------------------------------------------|
G|-----------------------------------------------------|
D|-4h5p4--4h5p4--4h5p4--4h5p4--------------------------|
A|-----------------------------7--5--4--7--5--4--7--5--|
E|-----------------------------------------------------|

e|--------------------------------------------------------------------------|
B|--------------------------------------------------------------------------|
G|--------------------------------------------------------------------------|
D|-7----9----7----9----7----9-/12~~-----7----9----7----9----5----7----5----7|
A|--------------------------------------------------------------------------|
E|--------------------------------------------------------------------------|

e|----------------------------------------------------------------------------------------|
B|----------------------------------------------------------------------------------------|
G|--------------------------------------------------------------------------------------x-|
D|-7----9----7----9----7----9-/12~~--10-\9---7----5----7----*2--------------*2----------x-|
A|--------------------------------------------------------------*3------*2------*3------0-|
E|------------------------------------------------------------------*3--------------*3--x-|
("I was inverted...")
e|-------------------------------------------------------------------------------------------|
B|-------------------------------------------------------------------------------------------|
G|--------------------------------------------------------------------------------------0----|
D|-/9----9--9--9--7--7----9----9--9-/12~~--10-\9---7----5----7----*2--------------*2----0----|
A|--------------------------------------------------------------------*3------*2--------0----|
E|------------------------------------------------------------------------*3------------x----|


FINAL REPETITION OF CHORUS RIFF:
("I was inverted..")

(B minor 7)               (D Major)
e|----------------------------------------------------|
B|----------------------0-0-----------------------0-0-|
G|x--x--x--x-x-x--x--x--0-0-x--x--x--x-x-x--x--x--0-0-| 
D|7--7--7--7-7-7--7--7--0-0-4--4--4--4-4-4--4--4--0-0-|
A|5--5--5--5-5-5--5--5--x-x-5--5--5--5-5-5--5--5--x-x-|
E|7--7--7--7-7-7--7--7--x-x-x--x--x--x-x-x--x--x--x-x-|

 (F# five)                 (G five)               
e|----------------------------------------------------|
B|------------------------0-----------------------0-0-|
G|------------------------0-x--x--x--x-x-x--x--x--0-0-| 
D|4--4--4--4-4-4--4--4--4-0-5--5--5--5-5-5--5--5--0-0-|
A|4--4--4--4-4-4--4--4--4-x-5--5--5--5-5-5--5--5--x-x-|
E|2--2--2--2-2-2--2--2--2-x-3--3--3--3-3-3--3--x--x-x-|

(no singing here, really play your heart out)
 (B minor)                 (D Major 6)
e|------------------------------------------------------|
B|0--0-0-0--0-0-0-----------0--0-0-0--0-0-0--+7w~~------|
G|x--x-x-x--x-x-x--+7w~~----x--x-x-x--x-x-x-------------|
D|7--7-7-7--7-7-7--+7w~~----7--7-7-7--7-7-7-------------|
A|5--5-5-5--5-5-5-----------5--5-5-5--5-5-5-------------|
E|7--7-7-7--7-7-7-----------x--x-x-x--x-x-x-------------|
                                                                        
 (F# sus4)                  (G Major)      
e|------------------------------------------------------|
B|0--0-0-0--0-0-0--0-0-0--0--0--0-0-0--0-0-0--0-0-0--0--|
G|x--x-x-x--x-x-x--x-x-x--x--x--x-x-x--x-x-x--x-x-x--x--|
D|4--4-4-4--4-4-4--4-4-4--4--5--5-5-5--5-5-5--5-5-5--5--|
A|4--4-4-4--4-4-4--4-4-4--4--5--5-5-5--5-5-5--5-5-5--5--|
E|2--2-2-2--2-2-2--2-2-2--2--3--3-3-3--3-3-3--3-3-3--3--|

(begin to slow down and play harder)
(B minor 7)                (D Major)
e|---------------------------------------------------|
B|----------------------0-0----------------------0-0-|
G|x--x--x--x-x-x--x--x--0-0-x--x--x--x--x--x--x--0-0-| 
D|7--7--7--7-7-7--7--7--0-0-4--4--4--4--4--4--4--0-0-|
A|5--5--5--5-5-5--5--5--x-x-5--5--5--5--5--5--5--x-x-|
E|7--7--7--7-7-7--7--7--x-x-x--x--x--x--x--x--x--x-x-|
(F# five)               (G five)(???)(let ring)
e|---------------------------------------------------|
B|-------------------------------0w/(hold it-------)\|
G|-------------------------------0w/(hold it-------)\| 
D|4--4------4------4------5------0w/(hold it-------)\|
A|4--4------4------4------5------x-------------------|
E|2--2------2------2------3------x-------------------|

(softly)
(B five)             (D Major)
e|-----------------------------------------------------|
B|-(0)-------------------------------------------------|
G|-(0)-------------------------------------------------|
D|--4~~~~-------------4~~~~----------------------------|
A|--2~~~~-------------5~~~~----------4~~~~p0-----------|
E|-----------------------------------------------------|


Email me if you have any questions!

            
            
Suggest correction
Creating personal tab
Creating personal tab
You can edit any tab online and save it as your Personal.

You can edit, replace or remove any tab part or add personal notes – all changes will be seen only by you.

Personal tabs can be accessed anytime from any device, even offline.
Learn more »
Give kudos to tab author, rate the tab!
1 2 3 4 5
comments
print report bad tab
8 comments total. Showing first comments.
0 reply
micheal.strother 10 Apr 02, 2016 11:21 PM

Absolutely fantastic tab. Really good know that someone who knows what there doing is getting around to some early Modest Mouse stuff.

0 reply
micheal.strother 10 Apr 02, 2016 11:58 PM

e|--------------------------------------------------------|
B|--------------------------------------------------------|
G|--------------------------------------------------------|
D|-4h5p4--4h5p4--4h5p4--4h5p4-----------------------------|
A|-----------------------------7--5--4--7--5--4--7--5--2--|
E|--------------------------------------------------------|
You forgot the last 2 on the solo bit.

0 reply
micheal.strother 10 Apr 02, 2016 11:58 PM

e|--------------------------------------------------------|
B|--------------------------------------------------------|
G|--------------------------------------------------------|
D|-4h5p4--4h5p4--4h5p4--4h5p4-----------------------------|
A|-----------------------------7--5--4--7--5--4--7--5--2--|
E|--------------------------------------------------------|
You forgot the last 2 on the solo bit.

guest
You may want to rate the tab now too:
select rating
Wanna post a correction for this tab? Suggest correction