Oops, an error
Loading. Please wait.

Dark Center Of The Universe bass

version 1
version 1

Whole song

Interactive

3,109 views 3 this week
1 commentread comment
1 2 3 4 5
1 last vote to show rating
add to favorites
×
Save as Personal and add changes to this tab that will be seen only by you. Learn more ›
×
You can save this tab as Personal to edit and correct it or add notes. All changes will be seen only by you. Learn more »
launch autoscroll
font size
0
reset
guitar tuner
edit
Autoscroll
slow
fast
+/-
esc
set tempo
stop
------------------------DARK CENTER OF THE UNIVERSE-------------------------

Tuning: Standard EADG

VERSE ("i might...")

G|---------------------------------------------------|
D|---------------------------------------------------|
A|---------------------------------------------------|
E|--12-12-12-12-12-12-12-12-10-10-10-10-10-10-10-10--|

  --------------------------------------------------------|
  --------------------------------------------------------|
  --------------------------------------------------------|
  --9--9--9--9--9--9--9--9--7--7--7--7--7--7--7--7--------| x 4

CHORUS

G|----------------------------------------------|
D|---------------------------------------12p0---|
A|------------------12-14-----------------------|
E|--12-12---12---12---------10---10---10--------|

  -----------------------------------------|
  -----------------------------------------|
  --------------7-9------------------------|
  ----9---9---9-------7-7/10-12-12-----12--| x 3

SCRATCHY GUITAR SEGMENT

G|-------------------------------------------------------------|
D|-------------------------------------------------------------|
A|-------------------------------------------------------------|
E|--12-12---12---12---12---10---10---10---10---9---9---9---9---|

  ----------------------|
  ----------------------|
  ----------------------|
  --7---7/12---14---12--| x 1

G|-------------------------------------------------------------|
D|-------------------------------------------------------------|
A|-------------------------------------------------------------|
E|--12-12---12---12---12---10---10---10---10---9---9---9---9---|

  --------------------|
  --------------------|
  --------------------|
  --0-7/12--14---12---| x 1

BACK TO CHORUS

G|----------------------------------------------------------------|
D|----------------------------------------12p0--------------------|
A|------------------12-14------10-12----------------7-9-----7-9---|
E|--12-12---12---12---------10---------10--------9-------9--------|

  --------------------|
  --------------------|
  --------------------|
  --7-7/---12-14-12---| x 2

G|--------------------------------------------------------------|
D|-----------------------------12p0-----12p0--------------------|
A|------------------12-14-------------------------7-9-----7-9---|
E|--12-12---12---12---------10-------10--------9-------9--------|

  -----------------------|
  -----------------------|
  -----------------------|
  --7-7/---12-12----12---|

INTERLUDE

G|---------------------------------------------------|
D|---------------------------------------------------|
A|--------------------------------------------12-----|
E|--12-12-12-12-12-12-12-12-10-10-10-10-10-10----10--|

  ---------------------------------------------------|
  ---------------------------------------------------|
  ---------------------------------------------------|
  --9--9--9--9--9--9--9--9--7--7--7--7--7--7--7--7---| x 3

CHORUS

G|-----------------------------------------------|
D|---------------------------------------12p0----|
A|------------------12-14------------------------|
E|--12-12---12---12---------10---10---10---------|

  -----------------------------------------|
  -----------------------------------------|
  --------------7-9------------------------|
  ----9---9---9-------7-7/10-12-12-----12--| x 3

SCRATCHY GUITAR SEGMENT

G|-------------------------------------------------------------|
D|-------------------------------------------------------------|
A|-------------------------------------------------------------|
E|--12-12---12---12---12---10---10---10---10---9---9---9---9---|

  --------------------|
  --------------------|
  --------------------|
  --0-7/12-----12-----| x 2

CHORUS

G|----------------------------------------------------------------|
D|----------------------------------------12p0--------------------|
A|------------------12-14------10-12----------------7-9-----7-9---|
E|--12-12---12---12---------10---------10--------9-------9--------|

  ----------------------|
  ----------------------|
  ----------------------|
  --0-7/--12-12----12---| x 1

G|---------------------------------------------------------------|
D|-----------------------------12p0------------------------------|
A|------------------12-14----------------12\---------------7-9---|
E|--12-12---12---12---------10--------10--------9-9---9--9-------|

  --------------------|
  --------------------|
  --------------------|
  --7-7/---12-14-12---| x 2

OUTRO (3rd time through, don't slide up with the 7)

G|-------------------------------------------------------------------|
D|-------------------------------------------------------------------|
A|-------------14--------------12\--------------10\--------------7/--|
E|--12--------------10--------------9---------------0----------------| x 3


This tab contains every variation played in sequence throughout the song, so just follow 
along with the song

            
            
Suggest correction
Creating personal tab
Creating personal tab
You can edit any tab online and save it as your Personal.

You can edit, replace or remove any tab part or add personal notes – all changes will be seen only by you.

Personal tabs can be accessed anytime from any device, even offline.
Learn more »
Give kudos to tab author, rate the tab!
1 2 3 4 5
comments
print report bad tab
1 comment total.
0 reply
WildIrish 5,055 Dec 05, 2007 12:10 PM

great tab thair is some hand mutes in it tho

guest
You may want to rate the tab now too:
select rating
Wanna post a correction for this tab? Suggest correction