Oops, an error
Loading. Please wait.
We have an official Dashboard tab made by UG professional guitarists. Check out the tab »
×
2,987 views 6 this week
no commentswrite comment
1 2 3 4 5
x 3
add to favorites
×
Save as Personal and add changes to this tab that will be seen only by you. Learn more ›
×
You can save this tab as Personal to edit and correct it or add notes. All changes will be seen only by you. Learn more »
launch autoscroll
font size
0
reset
guitar tuner
edit
Autoscroll
slow
fast
+/-
esc
set tempo
stop
M - Mute the note after allowing it to ring
/ - slide
^ - bend
h - hit on
p - pull off


[Rest for the intro, and then play this to lead into the verse]:

G|---------|
D|-2-0-----|
A|-----4-0-|
E|---------|

Verse:

G|-4--2h4-7------------------------------|
D|----------5--5h7p5-5-2--2h4p2-2--0-----|
A|-----------------------------------4-0-|
E|---------------------------------------| x6

Chorus:

G|---------------4~/7~-11~-9h11p9/2~-|
D|----442----442---------------------|
A|-222----222------------------------|
E|-----------------------------------|

G|---------------4~M/7~-11~-9h11p9/14~----|
D|----442----442--------------------------|
A|-222----222-----------------------------|
E|----------------------------------------|

G|---------------4~M/7~--9h11p9/2~-------|
D|----442----442----------------------442|
A|-222----222----------------------222---|
E|---------------------------------------|

[Rest, then play]:

Verse x 2, then

G|-4--2h4-7-----------------------|
D|----------5--5h7p5-5-2--2h4p2-2-|
A|--------------------------------|
E|--------------------------------|

Chorus x 1

[Rest again, then play]:

Bridge:

G|-----------------------------|
D|-----------------------------|
A|-------------7~--7~----------|
E|-5/7~-4~/5~-00~-00~----------|  x2

G|--------------------------|
D|---------------442----442-|
A|------------222----222----|
E|-5/7~-4~/5~---------------|

[Rest, then play]:

G|-----------------------------|
D|-----------------------------|
A|------------/7~-/7~----------|
E|-5/7~-5^5~--/0~-/0~----------|  

G|----------------------|
D|--------------2-0-----|
A|-----------7~-----4-0-|
E|-5/7~-55~--0~---------|

Verse x 3, then:

G|-4--2h4-7-----------------------|
D|----------5--5h7p5-5-2--2h4p2-2-|
A|--------------------------------|
E|--------------------------------|

Alternate Chorus:

G|--------4~/7~-11~-9h11p9/2~------|
D|----442--------------------------|
A|-222-----------------------------|
E|---------------------------------|

G|---------------4~M/7~-11~-9h11p9/14~----|
D|----442----442--------------------------|
A|-222----222-----------------------------|
E|----------------------------------------|

G|---------------4~M/7~--9h11p9/2~-------|
D|----442----442----------------------442|
A|-222----222----------------------222---|
E|---------------------------------------|

[Rest for the end]

And that's it! It's a little complicated at first and will take a couple plays to pick
but I have spelt out any confusing transitions for you pretty clearly :)

            
            
Suggest correction
Creating personal tab
Creating personal tab
You can edit any tab online and save it as your Personal.

You can edit, replace or remove any tab part or add personal notes – all changes will be seen only by you.

Personal tabs can be accessed anytime from any device, even offline.
Learn more »
Give kudos to tab author, rate the tab!
1 2 3 4 5
comments
print report bad tab
guest
You may want to rate the tab now too:
select rating
Wanna post a correction for this tab? Suggest correction