Oops, an error
Loading. Please wait.
We have an official Dashboard tab made by UG professional guitarists. Check out the tab »
×
8,174 views 3 this week
2 commentsread comments
1 2 3 4 5
x 3
add to favorites
×
Save as Personal and add changes to this tab that will be seen only by you. Learn more ›
×
You can save this tab as Personal to edit and correct it or add notes. All changes will be seen only by you. Learn more »
launch autoscroll
font size
0
reset
how to read this tab
guitar tuner
edit
Autoscroll
slow
fast
+/-
esc
set tempo
stop
Signs-
/= slide up
\= slide down

-Some of the parts I put in here the keyboard plays, but the guitar can play them as well.

Intro- Guitar 1

e-9--7-----7--9--5--3-----3----------------------------5-------------------|
b-7--7--7--7--7--3--3--3--3--5/7--5-----5--7--5-----5--5--7-----7--8--7-8--|
g-7--7--7--7--7--4--4--4--4--4/6--6--6--6--6--6--6--6--6--8--8--8--9--8-9--|
d----------------------------5/7--7--7--7--7--7--7--7--7--9--9--9--10-9-10-|
a--------------------------------------------------------------------------|
e--------------------------------------------------------------------------|

e-3-----3--------------------------------|
b-3--3--3--3-3--5/7--5-----5--7--5-----5-|
g-4--4--4--4-4--4/6--6--6--6--6--6--6--6-|
d---------------5/7--7--7--7--7--7--7--7-|
a----------------------------------------|
e----------------------------------------|

Intro- Guitar 2

e------------------------------------------------|
b------------------------------------------------|
g-9---9--9--9--9--7--6---9---9-9-9-9-9-9-9--7--6-| (x6)
d------------------------------------------------|
a------------------------------------------------|
e------------------------------------------------|

e------------------------------------------------------------|
b------------------------------------------------------------|
g-9-7-6-7-9-7-6-7-9-7-6-7-9-7-6-7--9---9--9--9---9---9--9--9-| (x2)
d------------------------------------------------------------|
a------------------------------------------------------------|
e------------------------------------------------------------|

Chorus- both guitars

e------------------------------|
b------------------------------|
g-------11-11-9 -------11-11-9-| (x3)
d-9-9-9-11-11-9--9-9-9-11-11-9-|
a-9-9-9-9--9--7--9-9-9-9--9--7-|
e-7-7-7----------7-7-7---------|

(Optional Part 1)

e--------------------------------------------------|
b------------------------------------10---------10-|
g--------------------------------------------------|
d-9---12------9-12-9--------9---12-------9-12-9----|
a---------10---------12----------------------------|
e--------------------------------------------------|

(Optional Part 2)

e-------------------------------------------------      -----------|
b-------------------------------------------------      -----------|
g------------------------------------------------- (x3) -----------| (x2)
d------------------------------------------7------      -----------|
a-----7-9-7------7-9-7------7-9-7------7-9---9-7--      -----7-9-7-|
e-7-9--------7-9--------7-9--------7-9-----------9      -7-9-------|

-then

e---------------|
b---------------|
g-------11-11-9-| (x2)
d-9-9-9-11-11-9-|
a-9-9-9-9--9--7-|
e-7-7-7---------|

-For the beginning strum (guitar 1) you can add strums to it,
 but the way I put it is the way I play it.
 The tab I put for that is pretty accurate though.

-For the 9-7-6-7-9-7-6-7.... on the g string (guitar 2) it should
 follow along with his voice.

            
            
Suggest correction
Creating personal tab
Creating personal tab
You can edit any tab online and save it as your Personal.

You can edit, replace or remove any tab part or add personal notes – all changes will be seen only by you.

Personal tabs can be accessed anytime from any device, even offline.
Learn more »
Give kudos to tab author, rate the tab!
1 2 3 4 5
comments
print report bad tab
2 comments total.
0 reply
hoggytunemaker 30 Apr 16, 2009 11:52 AM

Sorry, instead of

e------------
b-7---8-7--8-
g-8---9-8--9-
d-9--10-9-10-
a------------
e------------
in the intro (guitar 1), it should be

e----------
b-7--8-8-8-
g-8--7-7-7-
d-9--9-9-9-
a----------
e----------

+1 reply
Chickendirt 103 Nov 15, 2010 07:28 PM

the lead is wrong

guest
You may want to rate the tab now too:
select rating
Wanna post a correction for this tab? Suggest correction