Oops, an error
Loading. Please wait.
We have an official Edit The Sad Parts tab made by UG professional guitarists. Check out the tab »
×
3,762 views 6 this week
1 commentread comment
1 2 3 4 5
x 3
add to favorites
×
Save as Personal and add changes to this tab that will be seen only by you. Learn more ›
×
You can save this tab as Personal to edit and correct it or add notes. All changes will be seen only by you. Learn more »
launch autoscroll
font size
0
reset
guitar tuner
edit
Autoscroll
slow
fast
+/-
esc
set tempo
stop
Author
-------------------------------------------------------------------------------
			    EDIT THE SAD PARTS - Modest Mouse
-------------------------------------------------------------------------------

Tabbed By : Modest_Scott
E-mail : scoby182@hotmail.com



Tuning:EADG


Intro/Verse
  1 + 2 + 3 + 4 + |1 + 2 + 3  + 4 + |1 + 2 + 3 + 4 + |1 + 2 + 3 + 4 + | 
G|------9---------|------9-11-9-----|------9---------|------9-11------|
D|----12--12------|----12-------12--|----12--12------|----12----------|x2
A|--10------10--12|--12-------------|--10------10--12|--12------------|
E|12----------12--|10---------------|12----------12--|10--------------|


  1 + 2 + 3 + 4 + |1 + 2 + 3  + 4 + | 
G|------9---------|------9-11-9-----|
D|----12--12------|----12-------12--|
A|--10------10--12|--12-------------|
E|12----------12--|10---------------|



Pre-Chorus/Chorus
  1 e + a 2 e + a 3 e + a 4 e + a |1 e + a 2 e + a 3 e + a 4 e + a |
G|--------12----------11----------|--------11--11------------------|
D|------------------------12------|--------------------------------|x15
A|10--1010------10--10------------|--------------12--109-------12--|
E|--------------------------------|10--1010----------------10------|




Bridge
  1 e + a 2 e + a 3 e + a 4 e + a |1 e + a 2 e + a 3 e + a 4 e + a |
G|--------14----------------------|0-------------------------------|
D|------------------------12------|--------------------------------|x2
A|--------------------------------|--------------------------------|
E|10------------------------------|--------------------------------|


  1 e + a 2 e + a 3 e + a 4 e + a |1 e + a 2 e + a 3 e + a 4 e + a |
G|--------------------------------|0-------------------------------|
D|------------------------12------|--------------------------------|
A|--------------------------------|--------------------------------|
E|10------------------------------|--------------------------------|




Verse
  1 + 2 + 3 + 4 + |1 + 2 + 3  + 4 + |1 + 2 + 3 + 4 + |1 + 2 + 3 + 4 + | 
G|------9---------|------9-11-9-----|------9---------|------9-11------|
D|----12--12------|----12-------12--|----12--12------|----12----------|x2
A|--10------10--12|--12-------------|--10------10--12|--12------------|
E|12----------12--|10---------------|12----------12--|10--------------|


  1 + 2 + 3 + 4 + |1 + 2 + 3  + 4 + | 
G|------9---------|------9-11-9-----|
D|----12--12------|----12-------12--|
A|--10------10--12|--12-------------|
E|12----------12--|10---------------|




Pre-Chorus/Chorus
  1 e + a 2 e + a 3 e + a 4 e + a |1 e + a 2 e + a 3 e + a 4 e + a |
G|--------12----------11----------|--------11--11------------------|
D|------------------------12------|--------------------------------|x15
A|10--1010------10--10------------|--------------12--109-------12--|
E|--------------------------------|10--1010----------------10------|




Bridge
  1 e + a 2 e + a 3 e + a 4 e + a |1 e + a 2 e + a 3 e + a 4 e + a |
G|--------14----------------------|0-------------------------------|
D|------------------------12------|--------------------------------|x2
A|--------------------------------|--------------------------------|
E|10------------------------------|--------------------------------|




End
  1 e + a 2 e + a 3 e + a 4 e + a |1 e + a 2 e + a 3 e + a 4 e + a |
G|--------11--------------11------|----12--11----------12--11------|
D|--------------------------------|------------12--------------12--|x15
A|--------------------------------|1010------------1010------------|
E|101010----------101010----------|--------------------------------|


  1 e + a 2 e + a 3 e + a 4 e + a |1 e + a 2 e + a 3 e + a 4 e + a |
G|--------------------------------|--------------------------------|
D|--------------------------------|--------------------------------|
A|--------------------------------|10--------------10--------------|
E|10--------------10--------------|--------------------------------|


  1 e + a 2 e + a 3 e + a 4 e + a |
G|--------------------------------|
D|--------------------------------|
A|--------------------------------|
E|10------------------------------|





| /  slide up
| \  slide down
| h  hammer-on
| p  pull-off
| ~  vibrato
| +  harmonic
| x  Mute note
===============================================================================

            
            
Suggest correction
Creating personal tab
Creating personal tab
You can edit any tab online and save it as your Personal.

You can edit, replace or remove any tab part or add personal notes – all changes will be seen only by you.

Personal tabs can be accessed anytime from any device, even offline.
Learn more »
Give kudos to tab author, rate the tab!
1 2 3 4 5
comments
print report bad tab
1 comment total.
0 reply
lilegghead18 37 Apr 25, 2015 09:47 PM

In the Pre-Chorus/Chorus part, it might be that second to last note is actually the 12th fret on the D-string. Just listening to the song and I might have heard that, but whatever works.

guest
You may want to rate the tab now too:
select rating
Wanna post a correction for this tab? Suggest correction