Oops, an error
Loading. Please wait.

Every Penny Fed Car tab

version 1
version 1

Whole song

1,464 views 1 this week
no commentswrite comment
1 2 3 4 5
2 more votes to show rating
add to favorites
×
Save as Personal and add changes to this tab that will be seen only by you. Learn more ›
×
You can save this tab as Personal to edit and correct it or add notes. All changes will be seen only by you. Learn more »
launch autoscroll
font size
0
reset
how to read this tab
guitar tuner
edit
Autoscroll
slow
fast
+/-
esc
set tempo
stop
Author
Difficulty
-------------------------------------------------------------------------------
                             Every Penny Fed Car - Modest Mouse
-------------------------------------------------------------------------------
Tabbed by: Daniel O Henry
Email: reducedfatcreamy@yahoo.com

Tuning: Standard tuning

e|-----------------------------------------------------------------------------|
B|-------- 0~~-----------------------------------------------------------------|
G|--7~~5~~4~~0~~---------------------------------------------------------------|
D|--0~~0~~0~~5~~---------------------------------------------------------------|
A|--5~~3~~2~~0~~---------------------------------------------------------------|
E|-----------3~~---------------------------------------------------------------|

e|-----------------------------------------------------------------------------|
B|--------------------------------------77777777888888887777777788888888-------|
G|--777555444------- 777555444----------66666666777777776666666677777777-- ----|
D|--xxxxxxxxx55555555xxxxxxxxx55555555--44444444555555554444444455555555--- ---|
A|--555333222xxxxxxxx777555444xxxxxxxx--------------------- -------------------|
E|-----------33333333-------- 33333333---- ------------------------------------|

e|-----------------------------------------------------------------------------|
B|--------------------------------------77777777888888887777777788888888-------|
G|--777555444------- 777555444----------66666666777777776666666677777777-- ----|
D|--xxxxxxxxx55555555xxxxxxxxx55555555--44444444555555554444444455555555--- ---|
A|--555333222xxxxxxxx777555444xxxxxxxx--------------------- -------------------|
E|-----------33333333-------- 33333333---- ------------------------------------|

e|-----------------------------------------------------------------------------|
B|-----------------------------------------------------------------------------|
G|--77777-7+-77-999-77--77777-7+-77-999-77-------------------------------------|
D|--00000----00-000-00--00000---- 00-000-00------------ -----------------------|
A|--55555----55-555-55--55555---- 55-555-55 -----------------------------------|
E|-----------------------------------------------------------------------------|

e|-------------------------------------------------------------------------------|
B|-------------------------------------------------------------------------------|
G|--7\4/7\4/7-7+-999-77--7\4/7\4/7-7+-999-77--------------------- ---------------|
D|--0~~ 0~~~-----000-00--0~~ 0~~~----- 000-00---------------------------- -------|
A|--5\3/5\3/5---- 777-55--5\3/5\3/5---- 777-55------------ ----------------------|
E|-------------------------------------------------------------------------------|

e|-----------------------------------------------------------------------------|
B|--------------------------------------77777777888888887777777788888888-------|
G|--777555444------- 777555444----------66666666777777776666666677777777-- ----|
D|--xxxxxxxxx55555555xxxxxxxxx55555555--44444444555555554444444455555555--- ---|
A|--555333222xxxxxxxx777555444xxxxxxxx--------------------- -------------------|
E|-----------33333333-------- 33333333---- ------------------------------------|

e|-----------------------------------------------------------------------------|
B|--------------------------------------77777777888888887777777788888888-------|
G|--777555444------- 777555444----------66666666777777776666666677777777-- ----|
D|--xxxxxxxxx55555555xxxxxxxxx55555555--44444444555555554444444455555555--- ---|
A|--555333222xxxxxxxx777555444xxxxxxxx--------------------- -------------------|
E|-----------33333333-------- 33333333---- ------------------------------------|

e|-----------------------------------------------------------------------------|
B|-----------------------------------------------------------------------------|
G|--77777-7+-77-999-77--77777-7+-77-999-77-------------------------------------|
D|--00000----00-000-00--00000---- 00-000-00------------ -----------------------|
A|--55555----55-555-55--55555---- 55-555-55 -----------------------------------|
E|-----------------------------------------------------------------------------|

e|-------------------------------------------------------------------------------|
B|-------------------------------------------------------------------------------|
G|--7\4/7\4/7-7+-999-77--7\4/7\4/7-7+-999-77--------------------- ---------------|
D|--0~~ 0~~~-----000-00--0~~ 0~~~----- 000-00---------------------------- -------|
A|--5\3/5\3/5---- 777-55--5\3/5\3/5---- 777-55------------ ----------------------|
E|-------------------------------------------------------------------------------|

e|-----------------------------------------------------------------------------|
B|-----------------------------------------------------------------------------|
G|--7--7-- 7---7---7---77--77--7--9--7--7-7---7---7---7---7---7---5/-4/---- ---|
D|--0--0-- 0---0---0---00--00--0/-0--0--0-0---0---0---0---0---0---0/-0/5- -----|
A|--5--5-- 5---5---5---55--55--5--7--5--5-5---5---5---5---5---5---3/-2/0- -----|
E|-------------------------------------------------------------------- 3--- ---|

e|-----------------------------------------------------------------------------|
B|-----------------------------------------------------------------------------|
G|--7--7-- 7---7---7---77--77--7/-9--7--7-7---7---7---7---7---7---5/-4/---- ---|
D|--0--0-- 0---0---0---00--00--0/-0--0--0-0---0---0---0---0---0---0/-0/5- -----|
A|--5--5-- 5---5---5---55--55--5/-7--5--5-5---5---5---5---5---5---3/-2/0- -----|
E|-------------------------------------------------------------------- 3--- ---|
         So you spilt every last penny into the car, and it still won't take you where 
want to go.

e|-----------------------------------------------------------------------------|
B|-----------------------------------------------------------------------------|
G|--7--7-- 7---7---7---77--77--7/-9--7--7-7---7---7---7---7---7---5/-4/---- ---|
D|--0--0-- 0---0---0---00--00--0/-0--0--0-0---0---0---0---0---0---0/-0/5- -----|
A|--5--5-- 5---5---5---55--55--5/-7--5--5-5---5---5---5---5---5---3/-2/0- -----|
E|-------------------------------------------------------------------- 3--- ---|
         So you spilt every last penny into the car, and it still won't take you very 
at all.
e|-----------------------------------------------------------------------------|
B|-----------------------------------------------------------------------------|
G|--7--7-- 7---7---7---77--77--7/-9--7--7-7---7---7---7---7---7---5/-4/---- ---|
D|--0--0-- 0---0---0---00--00--0/-0--0--0-0---0---0---0---0---0---0/-0/5- -----|
A|--5--5-- 5---5---5---55--55--5/-7--5--5-5---5---5---5---5---5---3/-2/0- -----|
E|-------------------------------------------------------------------- 3--- ---|
         So you spilt every last penny into the car, and it still won't even barely 
your home.
e|-----------------------------------------------------------------------------|
B|-----------------------------------------------------------------------------|
G|--7--7-- 7---7---7---77--77--7/-9--7--7-7---7---7---7---7---7---5/-4/---- ---|
D|--0--0-- 0---0---0---00--00--0/-0--0--0-0---0---0---0---0---0---0/-0/5- -----|
A|--5--5-- 5---5---5---55--55--5/-7--5--5-5---5---5---5---5---5---3/-2/0- -----|
E|-------------------------------------------------------------------- 3--- ---|
         So you spilt every last penny into the car, and it still won't take you where 
need to go.
e|-----------------------------------------------------------------------------|
B|-----------------------------------------------------------------------------|
G|--7--7-- 7---7---7---77--77--7/-9--7--7-7---7---7---7---7---7---5/-4/---- ---|
D|--0--0-- 0---0---0---00--00--0/-0--0--0-0---0---0---0---0---0---0/-0/5- -----|
A|--5--5-- 5---5---5---55--55--5/-7--5--5-5---5---5---5---5---5---3/-2/0- -----|
E|-------------------------------------------------------------------- 3--- ---|
         So you spilt every last penny into the car, and it still won't even barely 
your home.
e|---------------------------------------------------------------------------------|
B|---------------------------------------------------------------------------------|
G|--7--7-- 7---7---7---77--77--7/-9--7--7-7---7---7---7---7---7---5/-4/---7~~~- ---|
D|--0--0-- 0---0---0---00--00--0/-0--0--0-0---0---0---0---0---0---0/-0/5- -0~~~----|
A|--5--5-- 5---5---5---55--55--5/-7--5--5-5---5---5---5---5---5---3/-2/0- -5~~~----|
E|-------------------------------------------------------------------- 3--- -------|
         So you spilt every last penny into the car, and it still won't take you any 
at all.

| /  slide up
| \  slide down
| h  hammer-on
| p  pull-off
| ~  vibrato
| +  harmonic
| x  Mute note
===============================================================================

            
            
Suggest correction
Creating personal tab
Creating personal tab
You can edit any tab online and save it as your Personal.

You can edit, replace or remove any tab part or add personal notes – all changes will be seen only by you.

Personal tabs can be accessed anytime from any device, even offline.
Learn more »
Give kudos to tab author, rate the tab!
1 2 3 4 5
comments
print report bad tab
guest
You may want to rate the tab now too:
select rating
Wanna post a correction for this tab? Suggest correction