Oops, an error
Loading. Please wait.

Fire It Up bass

12,022 views 15 this week
5 commentsread comments
1 2 3 4 5
x 10
add to favorites
×
Save as Personal and add changes to this tab that will be seen only by you. Learn more ›
×
You can save this tab as Personal to edit and correct it or add notes. All changes will be seen only by you. Learn more »
launch autoscroll
font size
0
reset
guitar tuner
edit
Autoscroll
slow
fast
+/-
esc
set tempo
stop
Author
Song: Fire It Up
Band: Modest Mouse
Album: We Were Dead Before the Ship Even Sank
Tabbed By: O-52-A-50-R

It’s pretty simple and straightforward song but no one has tabbed it yet.

Intro:

|7-7-7-7-7-/11\---------------------------------------------------------------|
|---------------7---------------7h9---------------------------9-9-9-9---------|
|-----------------7-7-7-7-7-7-7-----10-10-10-10-10-10-10-9h12---------10-10-12|
| ----------------------------------------------------------------------------|

(2x)

Chorus 1(Etceteranough):

|7-7-7-7-7-/11\---------------------------------------------------------------|
|---------------7---------------7h9---------------------------9-9-9-9---------|
|-----------------7-7-7-7-7-7-7-----10-10-10-10-10-10-10-9h12---------10-10-12|
| ----------------------------------------------------------------------------|

(2x)

Verses 1 & 2:

|7-7-7-7-7-7-7--------------------------------------------------------------|
|--------------7---------------9-------------------------9-9-9-9-9----------|
|----------------7-7-7-7-7-7-7---10-10-10-10-10-10-10-12-----------10-10-12-|
|---------------------------------------------------------------------------|

1x per verse

Chorus 2:

|7-7-7-7-7-/11\---------------------------------------------------------------|
|---------------7---------------7h9---------------------------9-9-9-9---------|
|-----------------7-7-7-7-7-7-7-----10-10-10-10-10-10-10-9h12---------10-10-12|
| ----------------------------------------------------------------------------|

(2x)

Verse 3:

NO BASS

Verse 4:

|7-7-7-7-7-7-7--------------------------------------------------------------|
|--------------7---------------9-------------------------9-9-9-9-9----------|
|----------------7-7-7-7-7-7-7---10-10-10-10-10-10-10-12-----------10-10-12-|
|---------------------------------------------------------------------------|

Bridge (It honestly was beautifully done…)

|---------7/9--------------------------------------------------------7/9-------7/9--------------|
|10-10-10-----10-10-12p10------------------------7/9-7-7-7-7/9-7-7-7=----7-7-7-----10-10-12p10--|
|-------------------------10-10-10-10-9-10-10-10------------------------------------------------|
|-----------------------------------------------------------------------------------------------|


Guitar Solo

|7-7-7-7-7-/11\---------------------------------------------------------------|
|---------------7---------------7h9---------------------------9-9-9-9---------|
|-----------------7-7-7-7-7-7-7-----10-10-10-10-10-10-10-9h12---------10-10-12|
| ----------------------------------------------------------------------------|

Verses 5 & 6

|7-7-7-7-7-7-7--------------------------------------------------------------|
|--------------7---------------9-------------------------9-9-9-9-9----------|
|----------------7-7-7-7-7-7-7---10-10-10-10-10-10-10-12-----------10-10-12-|
|---------------------------------------------------------------------------|


Bridge (It honestly was beautifully…)/Outro

|---------7/9--------------------------------------------------------7/9-------7/9--------------|
|10-10-10-----10-10-12p10------------------------7/9-7-7-7-7/9-7-7-7=----7-7-7-----10-10-12p10--|
|-------------------------10-10-10-10-9-10-10-10------------------------------------------------|
|-----------------------------------------------------------------------------------------------|

The only thing I'm not totally sure about is the bridge and bridge/outro, but the rest 
conifdent about. Hope this helps :D.

            
            
Suggest correction
Creating personal tab
Creating personal tab
You can edit any tab online and save it as your Personal.

You can edit, replace or remove any tab part or add personal notes – all changes will be seen only by you.

Personal tabs can be accessed anytime from any device, even offline.
Learn more »
comments
print report bad tab
5 comments total. Showing first comments. show 1 bad comment
+1 reply
O-52-A-50-R 946 Sep 06, 2008 06:51 PM

Are you kidding?... Please don't rate the tab 1 star just because it doesn't have the strings labled.

If it makes you happy...

Standard tuning.

G|
D|
A|
E|....

Happy? Want to rate it based on accuracy now?

0 reply
ballin'4life 10 Sep 07, 2008 03:26 PM

you are the finest example of dooshbaggery i've ever seen

guest
You may want to rate the tab now too:
select rating
Wanna post a correction for this tab? Suggest correction