Oops, an error
Loading. Please wait.
We have an official Gravity Rides Everything tab made by UG professional guitarists. Check out the tab »
×
2,182 views 6 this week
no commentswrite comment
1 2 3 4 5
3 more votes to show rating
add to favorites
×
Save as Personal and add changes to this tab that will be seen only by you. Learn more ›
×
You can save this tab as Personal to edit and correct it or add notes. All changes will be seen only by you. Learn more »
launch autoscroll
font size
0
reset
guitar tuner
edit
Autoscroll
slow
fast
+/-
esc
set tempo
stop
intro/verse
G-----------------------------------------------------------------|
D-----------------------------------------------------------------|
A-----------------------------------------------------------------|
E-5--5---5--5---0-0--0-0------------------------------------------|
repeat until chorus (really thumping bass part, new timing)

alternate intro
G-----------------------------------------------------------------|
D-----------------------------------------------------------------|
A---------------7-7--7-7------------------------------------------|
E-5--5---5--5-----------------------------------------------------|

for the E's (0s and 7s) in the two versions, you can try E (7 on A) and E (0 on E) 
as a chord
chorus
G-----------------------------------------------------------------|
D-----------------------------------------------------------------|
A--------------------------------------------------x-4------------|
E-5-5-5-5-0-0-0-0-------------------------------------------------|
play as quarter notes

post verse
G--------------------------------------------------------------------|
D--------------------------------------------------------------------|
A-------------------7------------------------------------------------|
E-5--5---5--5---0-0---0-0----5--5---5--5---0-0--0-0------------------|

post verse modified
G--------------------------------------------------------------------|
D--------------------------------------------x-2---------------------|
A-------------------7-----7------------------------------------------|
E-5--5---5--5---0-0---0-0--------------------------------------------|

chorus
G-----------------------------------------------------------------|
D-----------------------------------------------------------------|
A--------------------------------------------------x-4------------|
E-5-5-5-5-0-0-0-0-------------------------------------------------|
play as quarter notes

you may want to try a subtle E--4/5-- in place of the A's in the chorus

post verse modified
G--------------------------------------------------------------------|
D--------------------------------------------x-2---------------------|
A-------------------7-----7------------------------------------------|
E-5--5---5--5---0-0---0-0--------------------------------------------|

G------------------------------------------------------------------------|
D------------------------------------------------------------------------|
A---------------------------------------------7----7---------------------|
E-5-(4)-5---5--5---0-0---0-0----5--5---5-(4)-5---0-0--0-0----------------|
repeat until end

notes in parenthesis are notes you can mess around with (I'm not sure if they're there)

We need more Modest Mouse bass tabs yo

            
            
Suggest correction
Creating personal tab
Creating personal tab
You can edit any tab online and save it as your Personal.

You can edit, replace or remove any tab part or add personal notes – all changes will be seen only by you.

Personal tabs can be accessed anytime from any device, even offline.
Learn more »
Give kudos to tab author, rate the tab!
1 2 3 4 5
comments
print report bad tab
guest
You may want to rate the tab now too:
select rating
Wanna post a correction for this tab? Suggest correction