Oops, an error
Loading. Please wait.
We have an official Gravity Rides Everything tab made by UG professional guitarists. Check out the tab »
×
2,461 views 1 this week
3 commentsread comments
1 2 3 4 5
1 last vote to show rating
add to favorites
×
Save as Personal and add changes to this tab that will be seen only by you. Learn more ›
×
You can save this tab as Personal to edit and correct it or add notes. All changes will be seen only by you. Learn more »
launch autoscroll
font size
0
reset
how to read this tab
guitar tuner
edit
Autoscroll
slow
fast
+/-
esc
set tempo
stop
Author

                         intro
------------------------------------------------------'
----------------------------0-0-0-0-0-0-0-0-0-0-0-0---'
--1-1-1--1-1-1--1-1-1-1-1---2-2-2-2-2-2-2-2-2-2-2-2---'
--2-2-2--2-2-2--2-2-2-2-2---2-2-2-2-2-2-2-2-2-2-2-2---'
--2-2-2--2-2-2--2-2-2-2-2-----------------------------'
------------------------------------------------------'






Oh-------------------------- gotta see, gotta know right now
------------------------------------------------------------------'
----------------------------0-0-0-0-0-0-0-0-0-0-0-0---------------'
--1-1-1--1-1-1--1-1-1-1-1---2-2-2-2-2-2-2-2-2-2-2-2----1-1-1-1----'
--2-2-2--2-2-2--2-2-2-2-2---2-2-2-2-2-2-2-2-2-2-2-2----2-2-2-2----'
--2-2-2--2-2-2--2-2-2-2-2------------------------------2-2-2-2----'
------------------------------------------------------------------'





           What's that      riding     on    your     everything?
------------------------------------------------------------------'
----------------------------0-0-0-0-0-0-0-0-0-0-0-0---------------'
--1-1-1--1-1-1--1-1-1-1-1---2-2-2-2-2-2-2-2-2-2-2-2----1-1-1-1----'
--2-2-2--2-2-2--2-2-2-2-2---2-2-2-2-2-2-2-2-2-2-2-2----2-2-2-2----'
--2-2-2--2-2-2--2-2-2-2-2------------------------------2-2-2-2----'
------------------------------------------------------------------'





            It       isn't         anything        at    all
-------------------------------------------------------------------------'
----------------------------0-0-0-0-0-0-0-0-0-0-0-0-------------0-0-0-0--'
--1-1-1--1-1-1--1-1-1-1-1---2-2-2-2-2-2-2-2-2-2-2-2---1-1-1-1---2-2-2-2--'
--2-2-2--2-2-2--2-2-2-2-2---2-2-2-2-2-2-2-2-2-2-2-2---2-2-2-2---2-2-2-2--'
--2-2-2--2-2-2--2-2-2-2-2-----------------------------2-2-2-2------------'
-------------------------------------------------------------------------'





Oh------------------------ gotta see, gotta  know  right  now
------------------------------------------------------------------'
----------------------------0-0-0-0-0-0-0-0-0-0-0-0---------------'
--1-1-1--1-1-1--1-1-1-1-1---2-2-2-2-2-2-2-2-2-2-2-2----1-1-1-1----'
--2-2-2--2-2-2--2-2-2-2-2---2-2-2-2-2-2-2-2-2-2-2-2----2-2-2-2----'
--2-2-2--2-2-2--2-2-2-2-2------------------------------2-2-2-2----'
------------------------------------------------------------------'





            What's that         writing    on   your    shelf
------------------------------------------------------------------'
----------------------------0-0-0-0-0-0-0-0-0-0-0-0---------------'
--1-1-1--1-1-1--1-1-1-1-1---2-2-2-2-2-2-2-2-2-2-2-2----1-1-1-1----'
--2-2-2--2-2-2--2-2-2-2-2---2-2-2-2-2-2-2-2-2-2-2-2----2-2-2-2----'
--2-2-2--2-2-2--2-2-2-2-2------------------------------2-2-2-2----'
------------------------------------------------------------------'


          In the bathrooms       and  the  bad  motels? 
------------------------------------------------------------------'
----------------------------0-0-0-0-0-0-0-0-0-0-0-0---------------'
--1-1-1--1-1-1--1-1-1-1-1---2-2-2-2-2-2-2-2-2-2-2-2----1-1-1-1----'
--2-2-2--2-2-2--2-2-2-2-2---2-2-2-2-2-2-2-2-2-2-2-2----2-2-2-2----'
--2-2-2--2-2-2--2-2-2-2-2------------------------------2-2-2-2----'
------------------------------------------------------------------'
 


       No one really cared for   it  at all  not the 
------------------------------------------------------'
----------------------------0-0-0-0-0-0-0-0-0-0-0-0---'
--1-1-1--1-1-1--1-1-1-1-1---2-2-2-2-2-2-2-2-2-2-2-2---'
--2-2-2--2-2-2--2-2-2-2-2---2-2-2-2-2-2-2-2-2-2-2-2---'
--2-2-2--2-2-2--2-2-2-2-2-----------------------------'
------------------------------------------------------'

   gravity plan 
------------------------------------------------------'
----------------------------0-0-0-0-0-0-0-0-0-0-0-0---'
--1-1-1--1-1-1--1-1-1-1-1---2-2-2-2-2-2-2-2-2-2-2-2---'
--2-2-2--2-2-2--2-2-2-2-2---2-2-2-2-2-2-2-2-2-2-2-2---'
--2-2-2--2-2-2--2-2-2-2-2-----------------------------'
------------------------------------------------------'



Ear------ly, ear-------ly    in    the    morning
------------------------------------------------------'
----------------------------0-0-0-0-0-0-0-0-0-0-0-0---'
--1-1-1--1-1-1--1-1-1-1-1---2-2-2-2-2-2-2-2-2-2-2-2---'
--2-2-2--2-2-2--2-2-2-2-2---2-2-2-2-2-2-2-2-2-2-2-2---'
--2-2-2--2-2-2--2-2-2-2-2-----------------------------'
------------------------------------------------------'

  
 

  It pulls all  on       down my sore feet and i  wanna go back to sleep
-------------------------------------------------------------------------'
--------------------------0-0-0-0-0-0-0-0-0-0-0-0------------------------'
--1-1-1-1-1-1--1-1-1-1-1--2-2-2-2-2-2-2-2-2-2-2-2----1-1-1-1-1-1-1-------'
--2-2-2-2-2-2--2-2-2-2-2--2-2-2-2-2-2-2-2-2-2-2-2----2-2-2-2-2-2-2-------'
--2-2-2-2-2-2--2-2-2-2-2-----------------------------2-2-2-2-2-2-2-------'
-------------------------------------------------------------------------'


*continued for above riff* 

-------------------------------'
--0-0-0-0-0-0-0-0-0-0-0--------'
--2-2-2-2-2-2-2-2-2-2-2--------'
--2-2-2-2-2-2-2-2-2-2-2--------'
-------------------------------'
-------------------------------'

 

       
In the  motions and the things that you say, It all will fall, fall
------------------------------------------------------------------------'
-----------------------------------0------------------------------------'
------6----9----6------9------1----------1-----4---1--------------------'
--6/7---7----7-----7------1/2---2-----2-----2----2----0-h1--h2--4--2-1--'
------------------------------------------------------------------------'
------------------------------------------------------------------------'





right into place,As fruit drops, flesh it sags, Everything will
--------------------------------------------------------------'
--------------------------------------------------------------'
--------------------------------------------6---9---6-----9---'
---1-----4----1----4---0h1-h2-4--2--1---6/7---7---7---7-------'
-2----2-----2---2---------------------------------------------'
--------------------------------------------------------------'



   fall right into place, when we die some sink and some lay, 
------------------------------------------------------------------------'
-----------------------------------0------------------------------------'
------6----9----6------9------1----------1-----4---1--------------------'
--6/7---7----7-----7------1/2---2-----2-----2----2----0-h1--h2--4--2-1--'
------------------------------------------------------------------------'
------------------------------------------------------------------------'




But at least I, don't see you float away, And all the spilt milk,
--------------------------------------------------------------'
--------------------------------------------------------------'
--------------------------------------------6---9---6-----9---'
---1-----4----1----4---0h1-h2-4--2--1---6/7---7---7---7-------'
-2----2-----2---2---------------------------------------------'
--------------------------------------------------------------'

  sex and weight, It all will fall, fall right into place.
------------------------------------------------------------------------'
-----------------------------------0------------------------------------'
------6----9----6------9------1----------1-----4---1--------------------'
--6/7---7----7-----7------1/2---2-----2-----2----2----0-h1--h2--4--2-1--'
------------------------------------------------------------------------'
------------------------------------------------------------------------'






  
------------------------------------------------------'
----------------------------0-0-0-0-0-0-0-0-0-0-0-0---'
--1-1-1--1-1-1--1-1-1-1-1---2-2-2-2-2-2-2-2-2-2-2-2---'
--2-2-2--2-2-2--2-2-2-2-2---2-2-2-2-2-2-2-2-2-2-2-2---'
--2-2-2--2-2-2--2-2-2-2-2-----------------------------'
------------------------------------------------------'






Oh-------------------------- gotta see, gotta know right now
------------------------------------------------------------------'
----------------------------0-0-0-0-0-0-0-0-0-0-0-0---------------'
--1-1-1--1-1-1--1-1-1-1-1---2-2-2-2-2-2-2-2-2-2-2-2----1-1-1-1----'
--2-2-2--2-2-2--2-2-2-2-2---2-2-2-2-2-2-2-2-2-2-2-2----2-2-2-2----'
--2-2-2--2-2-2--2-2-2-2-2------------------------------2-2-2-2----'
------------------------------------------------------------------'





           What's that      riding     on    your     everything?
------------------------------------------------------------------'
----------------------------0-0-0-0-0-0-0-0-0-0-0-0---------------'
--1-1-1--1-1-1--1-1-1-1-1---2-2-2-2-2-2-2-2-2-2-2-2----1-1-1-1----'
--2-2-2--2-2-2--2-2-2-2-2---2-2-2-2-2-2-2-2-2-2-2-2----2-2-2-2----'
--2-2-2--2-2-2--2-2-2-2-2------------------------------2-2-2-2----'
------------------------------------------------------------------'





            It       isn't         anything         at    all
-------------------------------------------------------------------------'
----------------------------0-0-0-0-0-0-0-0-0-0-0-0-------------0-0-0-0--'
--1-1-1--1-1-1--1-1-1-1-1---2-2-2-2-2-2-2-2-2-2-2-2---1-1-1-1---2-2-2-2--'
--2-2-2--2-2-2--2-2-2-2-2---2-2-2-2-2-2-2-2-2-2-2-2---2-2-2-2---2-2-2-2--'
--2-2-2--2-2-2--2-2-2-2-2-----------------------------2-2-2-2------------'
-------------------------------------------------------------------------'





Oh------------------------ gotta see, gotta  know  right  now
------------------------------------------------------------------'
----------------------------0-0-0-0-0-0-0-0-0-0-0-0---------------'
--1-1-1--1-1-1--1-1-1-1-1---2-2-2-2-2-2-2-2-2-2-2-2----1-1-1-1----'
--2-2-2--2-2-2--2-2-2-2-2---2-2-2-2-2-2-2-2-2-2-2-2----2-2-2-2----'
--2-2-2--2-2-2--2-2-2-2-2------------------------------2-2-2-2----'
------------------------------------------------------------------'





            What's that         writing    on   your    shelf
------------------------------------------------------------------'
----------------------------0-0-0-0-0-0-0-0-0-0-0-0---------------'
--1-1-1--1-1-1--1-1-1-1-1---2-2-2-2-2-2-2-2-2-2-2-2----1-1-1-1----'
--2-2-2--2-2-2--2-2-2-2-2---2-2-2-2-2-2-2-2-2-2-2-2----2-2-2-2----'
--2-2-2--2-2-2--2-2-2-2-2------------------------------2-2-2-2----'
------------------------------------------------------------------'


          In the bathrooms       and  the  bad  motels? 
------------------------------------------------------------------'
----------------------------0-0-0-0-0-0-0-0-0-0-0-0---------------'
--1-1-1--1-1-1--1-1-1-1-1---2-2-2-2-2-2-2-2-2-2-2-2----1-1-1-1----'
--2-2-2--2-2-2--2-2-2-2-2---2-2-2-2-2-2-2-2-2-2-2-2----2-2-2-2----'
--2-2-2--2-2-2--2-2-2-2-2------------------------------2-2-2-2----'
------------------------------------------------------------------'
 


       No one really cared for   it  at all  not the 
------------------------------------------------------'
----------------------------0-0-0-0-0-0-0-0-0-0-0-0---'
--1-1-1--1-1-1--1-1-1-1-1---2-2-2-2-2-2-2-2-2-2-2-2---'
--2-2-2--2-2-2--2-2-2-2-2---2-2-2-2-2-2-2-2-2-2-2-2---'
--2-2-2--2-2-2--2-2-2-2-2-----------------------------'
------------------------------------------------------'

   gravity plan 
------------------------------------------------------'
----------------------------0-0-0-0-0-0-0-0-0-0-0-0---'
--1-1-1--1-1-1--1-1-1-1-1---2-2-2-2-2-2-2-2-2-2-2-2---'
--2-2-2--2-2-2--2-2-2-2-2---2-2-2-2-2-2-2-2-2-2-2-2---'
--2-2-2--2-2-2--2-2-2-2-2-----------------------------'
------------------------------------------------------'



Ear------ly, ear-------ly    in    the    morning
------------------------------------------------------'
----------------------------0-0-0-0-0-0-0-0-0-0-0-0---'
--1-1-1--1-1-1--1-1-1-1-1---2-2-2-2-2-2-2-2-2-2-2-2---'
--2-2-2--2-2-2--2-2-2-2-2---2-2-2-2-2-2-2-2-2-2-2-2---'
--2-2-2--2-2-2--2-2-2-2-2-----------------------------'
------------------------------------------------------'

  
 

  It pulls all  on       down my sore feet and i  wanna go back to sleep
-------------------------------------------------------------------------'
--------------------------0-0-0-0-0-0-0-0-0-0-0-0------------------------'
--1-1-1-1-1-1--1-1-1-1-1--2-2-2-2-2-2-2-2-2-2-2-2----1-1-1-1-1-1-1-------'
--2-2-2-2-2-2--2-2-2-2-2--2-2-2-2-2-2-2-2-2-2-2-2----2-2-2-2-2-2-2-------'
--2-2-2-2-2-2--2-2-2-2-2-----------------------------2-2-2-2-2-2-2-------'
-------------------------------------------------------------------------'


*continued for above riff* 

-------------------------------'
--0-0-0-0-0-0-0-0-0-0-0--------'
--2-2-2-2-2-2-2-2-2-2-2--------'
--2-2-2-2-2-2-2-2-2-2-2--------'
-------------------------------'
-------------------------------'

 

       
In the  motions and the things that you say, It all will fall, fall
------------------------------------------------------------------------'
-----------------------------------0------------------------------------'
------6----9----6------9------1----------1-----4---1--------------------'
--6/7---7----7-----7------1/2---2-----2-----2----2----0-h1--h2--4--2-1--'
------------------------------------------------------------------------'
------------------------------------------------------------------------'





right into place,As fruit drops, flesh it sags, Everything will
--------------------------------------------------------------'
--------------------------------------------------------------'
--------------------------------------------6---9---6-----9---'
---1-----4----1----4---0h1-h2-4--2--1---6/7---7---7---7-------'
-2----2-----2---2---------------------------------------------'
--------------------------------------------------------------'



   fall right into place, when we die some sink and some lay, 
------------------------------------------------------------------------'
-----------------------------------0------------------------------------'
------6----9----6------9------1----------1-----4---1--------------------'
--6/7---7----7-----7------1/2---2-----2-----2----2----0-h1--h2--4--2-1--'
------------------------------------------------------------------------'
------------------------------------------------------------------------'




But at least I, don't see you float away, And all the spilt milk,
--------------------------------------------------------------'
--------------------------------------------------------------'
--------------------------------------------6---9---6-----9---'
---1-----4----1----4---0h1-h2-4--2--1---6/7---7---7---7-------'
-2----2-----2---2---------------------------------------------'
--------------------------------------------------------------'

  sex and weight, It all will fall, fall right into place.
------------------------------------------------------------------------'
-----------------------------------0------------------------------------'
------6----9----6------9------1----------1-----4---1--------------------'
--6/7---7----7-----7------1/2---2-----2-----2----2----0-h1--h2--4--2-1--'
------------------------------------------------------------------------'
------------------------------------------------------------------------'






  
'
------------------------------------------------------'
----------------------------0-0-0-0-0-0-0-0-0-0-0-0---'
--1-1-1--1-1-1--1-1-1-1-1---2-2-2-2-2-2-2-2-2-2-2-2---'
--2-2-2--2-2-2--2-2-2-2-2---2-2-2-2-2-2-2-2-2-2-2-2---'
--2-2-2--2-2-2--2-2-2-2-2-----------------------------'
------------------------------------------------------'






Oh-------------------------- gotta see, gotta know right now
------------------------------------------------------------------'
----------------------------0-0-0-0-0-0-0-0-0-0-0-0---------------'
--1-1-1--1-1-1--1-1-1-1-1---2-2-2-2-2-2-2-2-2-2-2-2----1-1-1-1----'
--2-2-2--2-2-2--2-2-2-2-2---2-2-2-2-2-2-2-2-2-2-2-2----2-2-2-2----'
--2-2-2--2-2-2--2-2-2-2-2------------------------------2-2-2-2----'
------------------------------------------------------------------'





           What's that      riding     on    your     everything?
------------------------------------------------------------------'
----------------------------0-0-0-0-0-0-0-0-0-0-0-0---------------'
--1-1-1--1-1-1--1-1-1-1-1---2-2-2-2-2-2-2-2-2-2-2-2----1-1-1-1----'
--2-2-2--2-2-2--2-2-2-2-2---2-2-2-2-2-2-2-2-2-2-2-2----2-2-2-2----'
--2-2-2--2-2-2--2-2-2-2-2------------------------------2-2-2-2----'
------------------------------------------------------------------'





            It       isn't         anything         at    all
-------------------------------------------------------------------------'
----------------------------0-0-0-0-0-0-0-0-0-0-0-0-------------0-0-0-0--'
--1-1-1--1-1-1--1-1-1-1-1---2-2-2-2-2-2-2-2-2-2-2-2---1-1-1-1---2-2-2-2--'
--2-2-2--2-2-2--2-2-2-2-2---2-2-2-2-2-2-2-2-2-2-2-2---2-2-2-2---2-2-2-2--'
--2-2-2--2-2-2--2-2-2-2-2-----------------------------2-2-2-2------------'
-------------------------------------------------------------------------'





Oh------------------------ gotta see, gotta  know  right  now
------------------------------------------------------------------'
----------------------------0-0-0-0-0-0-0-0-0-0-0-0---------------'
--1-1-1--1-1-1--1-1-1-1-1---2-2-2-2-2-2-2-2-2-2-2-2----1-1-1-1----'
--2-2-2--2-2-2--2-2-2-2-2---2-2-2-2-2-2-2-2-2-2-2-2----2-2-2-2----'
--2-2-2--2-2-2--2-2-2-2-2------------------------------2-2-2-2----'
------------------------------------------------------------------'





            What's that         writing    on   your    shelf
------------------------------------------------------------------'
----------------------------0-0-0-0-0-0-0-0-0-0-0-0---------------'
--1-1-1--1-1-1--1-1-1-1-1---2-2-2-2-2-2-2-2-2-2-2-2----1-1-1-1----'
--2-2-2--2-2-2--2-2-2-2-2---2-2-2-2-2-2-2-2-2-2-2-2----2-2-2-2----'
--2-2-2--2-2-2--2-2-2-2-2------------------------------2-2-2-2----'
------------------------------------------------------------------'


          In the bathrooms       and  the  bad  motels? 
------------------------------------------------------------------'
----------------------------0-0-0-0-0-0-0-0-0-0-0-0---------------'
--1-1-1--1-1-1--1-1-1-1-1---2-2-2-2-2-2-2-2-2-2-2-2----1-1-1-1----'
--2-2-2--2-2-2--2-2-2-2-2---2-2-2-2-2-2-2-2-2-2-2-2----2-2-2-2----'
--2-2-2--2-2-2--2-2-2-2-2------------------------------2-2-2-2----'
------------------------------------------------------------------'
 


       No one really cared for   it  at all  not the 
------------------------------------------------------'
----------------------------0-0-0-0-0-0-0-0-0-0-0-0---'
--1-1-1--1-1-1--1-1-1-1-1---2-2-2-2-2-2-2-2-2-2-2-2---'
--2-2-2--2-2-2--2-2-2-2-2---2-2-2-2-2-2-2-2-2-2-2-2---'
--2-2-2--2-2-2--2-2-2-2-2-----------------------------'
------------------------------------------------------'

   gravity plan 
------------------------------------------------------'
----------------------------0-0-0-0-0-0-0-0-0-0-0-0---'
--1-1-1--1-1-1--1-1-1-1-1---2-2-2-2-2-2-2-2-2-2-2-2---'
--2-2-2--2-2-2--2-2-2-2-2---2-2-2-2-2-2-2-2-2-2-2-2---'
--2-2-2--2-2-2--2-2-2-2-2-----------------------------'
------------------------------------------------------'



Ear------ly, ear-------ly    in    the    morning
------------------------------------------------------'
----------------------------0-0-0-0-0-0-0-0-0-0-0-0---'
--1-1-1--1-1-1--1-1-1-1-1---2-2-2-2-2-2-2-2-2-2-2-2---'
--2-2-2--2-2-2--2-2-2-2-2---2-2-2-2-2-2-2-2-2-2-2-2---'
--2-2-2--2-2-2--2-2-2-2-2-----------------------------'
------------------------------------------------------'

  
 

  It pulls all  on       down my sore feet and i  wanna go back to sleep
-------------------------------------------------------------------------'
--------------------------0-0-0-0-0-0-0-0-0-0-0-0------------------------'
--1-1-1-1-1-1--1-1-1-1-1--2-2-2-2-2-2-2-2-2-2-2-2----1-1-1-1-1-1-1-------'
--2-2-2-2-2-2--2-2-2-2-2--2-2-2-2-2-2-2-2-2-2-2-2----2-2-2-2-2-2-2-------'
--2-2-2-2-2-2--2-2-2-2-2-----------------------------2-2-2-2-2-2-2-------'
-------------------------------------------------------------------------'


*continued for above riff* 

-------------------------------'
--0-0-0-0-0-0-0-0-0-0-0--------'
--2-2-2-2-2-2-2-2-2-2-2--------'
--2-2-2-2-2-2-2-2-2-2-2--------'
-------------------------------'
-------------------------------'

 

       
In the  motions and the things that you say, It all will fall, fall
------------------------------------------------------------------------'
-----------------------------------0------------------------------------'
------6----9----6------9------1----------1-----4---1--------------------'
--6/7---7----7-----7------1/2---2-----2-----2----2----0-h1--h2--4--2-1--'
------------------------------------------------------------------------'
------------------------------------------------------------------------'





right into place,As fruit drops, flesh it sags, Everything will
--------------------------------------------------------------'
--------------------------------------------------------------'
--------------------------------------------6---9---6-----9---'
---1-----4----1----4---0h1-h2-4--2--1---6/7---7---7---7-------'
-2----2-----2---2---------------------------------------------'
--------------------------------------------------------------'



   fall right into place, when we die some sink and some lay, 
------------------------------------------------------------------------'
-----------------------------------0------------------------------------'
------6----9----6------9------1----------1-----4---1--------------------'
--6/7---7----7-----7------1/2---2-----2-----2----2----0-h1--h2--4--2-1--'
------------------------------------------------------------------------'
------------------------------------------------------------------------'




But at least I, don't see you float away, And all the spilt milk,
--------------------------------------------------------------'
--------------------------------------------------------------'
--------------------------------------------6---9---6-----9---'
---1-----4----1----4---0h1-h2-4--2--1---6/7---7---7---7-------'
-2----2-----2---2---------------------------------------------'
--------------------------------------------------------------'

  sex and weight, It all will fall, fall right into place.
------------------------------------------------------------------------'
-----------------------------------0------------------------------------'
------6----9----6------9------1----------1-----4---1--------------------'
--6/7---7----7-----7------1/2---2-----2-----2----2----0-h1--h2--4--2-1--'
------------------------------------------------------------------------'
------------------------------------------------------------------------'



------------------------------------------------------'
----------------------------0-0-0-0-0-0-0-0-0-0-0-0---'
--1-1-1--1-1-1--1-1-1-1-1---2-2-2-2-2-2-2-2-2-2-2-2---'
--2-2-2--2-2-2--2-2-2-2-2---2-2-2-2-2-2-2-2-2-2-2-2---'
--2-2-2--2-2-2--2-2-2-2-2-----------------------------'
------------------------------------------------------'






Oh-------------------------- gotta see, gotta know right now
------------------------------------------------------------------'
----------------------------0-0-0-0-0-0-0-0-0-0-0-0---------------'
--1-1-1--1-1-1--1-1-1-1-1---2-2-2-2-2-2-2-2-2-2-2-2----1-1-1-1----'
--2-2-2--2-2-2--2-2-2-2-2---2-2-2-2-2-2-2-2-2-2-2-2----2-2-2-2----'
--2-2-2--2-2-2--2-2-2-2-2------------------------------2-2-2-2----'
------------------------------------------------------------------'





           What's that      riding     on    your     everything?
------------------------------------------------------------------'
----------------------------0-0-0-0-0-0-0-0-0-0-0-0---------------'
--1-1-1--1-1-1--1-1-1-1-1---2-2-2-2-2-2-2-2-2-2-2-2----1-1-1-1----'
--2-2-2--2-2-2--2-2-2-2-2---2-2-2-2-2-2-2-2-2-2-2-2----2-2-2-2----'
--2-2-2--2-2-2--2-2-2-2-2------------------------------2-2-2-2----'
------------------------------------------------------------------'





            It       isn't         anything         at    all
-------------------------------------------------------------------------'
----------------------------0-0-0-0-0-0-0-0-0-0-0-0-------------0-0-0-0--'
--1-1-1--1-1-1--1-1-1-1-1---2-2-2-2-2-2-2-2-2-2-2-2---1-1-1-1---2-2-2-2--'
--2-2-2--2-2-2--2-2-2-2-2---2-2-2-2-2-2-2-2-2-2-2-2---2-2-2-2---2-2-2-2--'
--2-2-2--2-2-2--2-2-2-2-2-----------------------------2-2-2-2------------'
-------------------------------------------------------------------------'





Oh------------------------ gotta see, gotta  know  right  now
------------------------------------------------------------------'
----------------------------0-0-0-0-0-0-0-0-0-0-0-0---------------'
--1-1-1--1-1-1--1-1-1-1-1---2-2-2-2-2-2-2-2-2-2-2-2----1-1-1-1----'
--2-2-2--2-2-2--2-2-2-2-2---2-2-2-2-2-2-2-2-2-2-2-2----2-2-2-2----'
--2-2-2--2-2-2--2-2-2-2-2------------------------------2-2-2-2----'
------------------------------------------------------------------'





            What's that         writing    on   your    shelf
------------------------------------------------------------------'
----------------------------0-0-0-0-0-0-0-0-0-0-0-0---------------'
--1-1-1--1-1-1--1-1-1-1-1---2-2-2-2-2-2-2-2-2-2-2-2----1-1-1-1----'
--2-2-2--2-2-2--2-2-2-2-2---2-2-2-2-2-2-2-2-2-2-2-2----2-2-2-2----'
--2-2-2--2-2-2--2-2-2-2-2------------------------------2-2-2-2----'
------------------------------------------------------------------'


          In the bathrooms       and  the  bad  motels? 
------------------------------------------------------------------'
----------------------------0-0-0-0-0-0-0-0-0-0-0-0---------------'
--1-1-1--1-1-1--1-1-1-1-1---2-2-2-2-2-2-2-2-2-2-2-2----1-1-1-1----'
--2-2-2--2-2-2--2-2-2-2-2---2-2-2-2-2-2-2-2-2-2-2-2----2-2-2-2----'
--2-2-2--2-2-2--2-2-2-2-2------------------------------2-2-2-2----'
------------------------------------------------------------------'
 


       No one really cared for   it  at all  not the 
------------------------------------------------------'
----------------------------0-0-0-0-0-0-0-0-0-0-0-0---'
--1-1-1--1-1-1--1-1-1-1-1---2-2-2-2-2-2-2-2-2-2-2-2---'
--2-2-2--2-2-2--2-2-2-2-2---2-2-2-2-2-2-2-2-2-2-2-2---'
--2-2-2--2-2-2--2-2-2-2-2-----------------------------'
------------------------------------------------------'

   gravity plan 
------------------------------------------------------'
----------------------------0-0-0-0-0-0-0-0-0-0-0-0---'
--1-1-1--1-1-1--1-1-1-1-1---2-2-2-2-2-2-2-2-2-2-2-2---'
--2-2-2--2-2-2--2-2-2-2-2---2-2-2-2-2-2-2-2-2-2-2-2---'
--2-2-2--2-2-2--2-2-2-2-2-----------------------------'
------------------------------------------------------'



Ear------ly, ear-------ly    in    the    morning
------------------------------------------------------'
----------------------------0-0-0-0-0-0-0-0-0-0-0-0---'
--1-1-1--1-1-1--1-1-1-1-1---2-2-2-2-2-2-2-2-2-2-2-2---'
--2-2-2--2-2-2--2-2-2-2-2---2-2-2-2-2-2-2-2-2-2-2-2---'
--2-2-2--2-2-2--2-2-2-2-2-----------------------------'
------------------------------------------------------'

  
 

  It pulls all  on       down my sore feet and i  wanna go back to sleep
-------------------------------------------------------------------------'
--------------------------0-0-0-0-0-0-0-0-0-0-0-0------------------------'
--1-1-1-1-1-1--1-1-1-1-1--2-2-2-2-2-2-2-2-2-2-2-2----1-1-1-1-1-1-1-------'
--2-2-2-2-2-2--2-2-2-2-2--2-2-2-2-2-2-2-2-2-2-2-2----2-2-2-2-2-2-2-------'
--2-2-2-2-2-2--2-2-2-2-2-----------------------------2-2-2-2-2-2-2-------'
-------------------------------------------------------------------------'


*continued for above riff* 

-------------------------------'
--0-0-0-0-0-0-0-0-0-0-0--------'
--2-2-2-2-2-2-2-2-2-2-2--------'
--2-2-2-2-2-2-2-2-2-2-2--------'
-------------------------------'
-------------------------------'

 

       
In the  motions and the things that you say, It all will fall, fall
------------------------------------------------------------------------'
-----------------------------------0------------------------------------'
------6----9----6------9------1----------1-----4---1--------------------'
--6/7---7----7-----7------1/2---2-----2-----2----2----0-h1--h2--4--2-1--'
------------------------------------------------------------------------'
------------------------------------------------------------------------'





right into place,As fruit drops, flesh it sags, Everything will
--------------------------------------------------------------'
--------------------------------------------------------------'
--------------------------------------------6---9---6-----9---'
---1-----4----1----4---0h1-h2-4--2--1---6/7---7---7---7-------'
-2----2-----2---2---------------------------------------------'
--------------------------------------------------------------'



   fall right into place, when we die some sink and some lay, 
------------------------------------------------------------------------'
-----------------------------------0------------------------------------'
------6----9----6------9------1----------1-----4---1--------------------'
--6/7---7----7-----7------1/2---2-----2-----2----2----0-h1--h2--4--2-1--'
------------------------------------------------------------------------'
------------------------------------------------------------------------'




But at least I, don't see you float away, And all the spilt milk,
--------------------------------------------------------------'
--------------------------------------------------------------'
--------------------------------------------6---9---6-----9---'
---1-----4----1----4---0h1-h2-4--2--1---6/7---7---7---7-------'
-2----2-----2---2---------------------------------------------'
--------------------------------------------------------------'

  sex and weight, It all will fall, fall right into place.
------------------------------------------------------------------------'
-----------------------------------0------------------------------------'
------6----9----6------9------1----------1-----4---1--------------------'
--6/7---7----7-----7------1/2---2-----2-----2----2----0-h1--h2--4--2-1--'
------------------------------------------------------------------------'
------------------------------------------------------------------------'




------------------------------------------------------'
----------------------------0-0-0-0-0-0-0-0-0-0-0-0---'
--1-1-1--1-1-1--1-1-1-1-1---2-2-2-2-2-2-2-2-2-2-2-2---'
--2-2-2--2-2-2--2-2-2-2-2---2-2-2-2-2-2-2-2-2-2-2-2---'
--2-2-2--2-2-2--2-2-2-2-2-----------------------------'
------------------------------------------------------'






Oh-------------------------- gotta see, gotta know right now
------------------------------------------------------------------'
----------------------------0-0-0-0-0-0-0-0-0-0-0-0---------------'
--1-1-1--1-1-1--1-1-1-1-1---2-2-2-2-2-2-2-2-2-2-2-2----1-1-1-1----'
--2-2-2--2-2-2--2-2-2-2-2---2-2-2-2-2-2-2-2-2-2-2-2----2-2-2-2----'
--2-2-2--2-2-2--2-2-2-2-2------------------------------2-2-2-2----'
------------------------------------------------------------------'





           What's that      riding     on    your     everything?
------------------------------------------------------------------'
----------------------------0-0-0-0-0-0-0-0-0-0-0-0---------------'
--1-1-1--1-1-1--1-1-1-1-1---2-2-2-2-2-2-2-2-2-2-2-2----1-1-1-1----'
--2-2-2--2-2-2--2-2-2-2-2---2-2-2-2-2-2-2-2-2-2-2-2----2-2-2-2----'
--2-2-2--2-2-2--2-2-2-2-2------------------------------2-2-2-2----'
------------------------------------------------------------------'





            It       isn't         anything         at    all
-------------------------------------------------------------------------'
----------------------------0-0-0-0-0-0-0-0-0-0-0-0-------------0-0-0-0--'
--1-1-1--1-1-1--1-1-1-1-1---2-2-2-2-2-2-2-2-2-2-2-2---1-1-1-1---2-2-2-2--'
--2-2-2--2-2-2--2-2-2-2-2---2-2-2-2-2-2-2-2-2-2-2-2---2-2-2-2---2-2-2-2--'
--2-2-2--2-2-2--2-2-2-2-2-----------------------------2-2-2-2------------'
-------------------------------------------------------------------------'





Oh------------------------ gotta see, gotta  know  right  now
------------------------------------------------------------------'
----------------------------0-0-0-0-0-0-0-0-0-0-0-0---------------'
--1-1-1--1-1-1--1-1-1-1-1---2-2-2-2-2-2-2-2-2-2-2-2----1-1-1-1----'
--2-2-2--2-2-2--2-2-2-2-2---2-2-2-2-2-2-2-2-2-2-2-2----2-2-2-2----'
--2-2-2--2-2-2--2-2-2-2-2------------------------------2-2-2-2----'
------------------------------------------------------------------'





            What's that         writing    on   your    shelf
------------------------------------------------------------------'
----------------------------0-0-0-0-0-0-0-0-0-0-0-0---------------'
--1-1-1--1-1-1--1-1-1-1-1---2-2-2-2-2-2-2-2-2-2-2-2----1-1-1-1----'
--2-2-2--2-2-2--2-2-2-2-2---2-2-2-2-2-2-2-2-2-2-2-2----2-2-2-2----'
--2-2-2--2-2-2--2-2-2-2-2------------------------------2-2-2-2----'
------------------------------------------------------------------'


          In the bathrooms       and  the  bad  motels? 
------------------------------------------------------------------'
----------------------------0-0-0-0-0-0-0-0-0-0-0-0---------------'
--1-1-1--1-1-1--1-1-1-1-1---2-2-2-2-2-2-2-2-2-2-2-2----1-1-1-1----'
--2-2-2--2-2-2--2-2-2-2-2---2-2-2-2-2-2-2-2-2-2-2-2----2-2-2-2----'
--2-2-2--2-2-2--2-2-2-2-2------------------------------2-2-2-2----'
------------------------------------------------------------------'
 


       No one really cared for   it  at all  not the 
------------------------------------------------------'
----------------------------0-0-0-0-0-0-0-0-0-0-0-0---'
--1-1-1--1-1-1--1-1-1-1-1---2-2-2-2-2-2-2-2-2-2-2-2---'
--2-2-2--2-2-2--2-2-2-2-2---2-2-2-2-2-2-2-2-2-2-2-2---'
--2-2-2--2-2-2--2-2-2-2-2-----------------------------'
------------------------------------------------------'

   gravity plan 
------------------------------------------------------'
----------------------------0-0-0-0-0-0-0-0-0-0-0-0---'
--1-1-1--1-1-1--1-1-1-1-1---2-2-2-2-2-2-2-2-2-2-2-2---'
--2-2-2--2-2-2--2-2-2-2-2---2-2-2-2-2-2-2-2-2-2-2-2---'
--2-2-2--2-2-2--2-2-2-2-2-----------------------------'
------------------------------------------------------'



Ear------ly, ear-------ly    in    the    morning
------------------------------------------------------'
----------------------------0-0-0-0-0-0-0-0-0-0-0-0---'
--1-1-1--1-1-1--1-1-1-1-1---2-2-2-2-2-2-2-2-2-2-2-2---'
--2-2-2--2-2-2--2-2-2-2-2---2-2-2-2-2-2-2-2-2-2-2-2---'
--2-2-2--2-2-2--2-2-2-2-2-----------------------------'
------------------------------------------------------'

  
 

  It pulls all  on       down my sore feet and i  wanna go back to sleep
-------------------------------------------------------------------------'
--------------------------0-0-0-0-0-0-0-0-0-0-0-0------------------------'
--1-1-1-1-1-1--1-1-1-1-1--2-2-2-2-2-2-2-2-2-2-2-2----1-1-1-1-1-1-1-------'
--2-2-2-2-2-2--2-2-2-2-2--2-2-2-2-2-2-2-2-2-2-2-2----2-2-2-2-2-2-2-------'
--2-2-2-2-2-2--2-2-2-2-2-----------------------------2-2-2-2-2-2-2-------'
-------------------------------------------------------------------------'


*continued for above riff* 

-------------------------------'
--0-0-0-0-0-0-0-0-0-0-0--------'
--2-2-2-2-2-2-2-2-2-2-2--------'
--2-2-2-2-2-2-2-2-2-2-2--------'
-------------------------------'
-------------------------------'

 

       
In the  motions and the things that you say, It all will fall, fall
------------------------------------------------------------------------'
-----------------------------------0------------------------------------'
------6----9----6------9------1----------1-----4---1--------------------'
--6/7---7----7-----7------1/2---2-----2-----2----2----0-h1--h2--4--2-1--'
------------------------------------------------------------------------'
------------------------------------------------------------------------'





right into place,As fruit drops, flesh it sags, Everything will
--------------------------------------------------------------'
--------------------------------------------------------------'
--------------------------------------------6---9---6-----9---'
---1-----4----1----4---0h1-h2-4--2--1---6/7---7---7---7-------'
-2----2-----2---2---------------------------------------------'
--------------------------------------------------------------'



   fall right into place, when we die some sink and some lay, 
------------------------------------------------------------------------'
-----------------------------------0------------------------------------'
------6----9----6------9------1----------1-----4---1--------------------'
--6/7---7----7-----7------1/2---2-----2-----2----2----0-h1--h2--4--2-1--'
------------------------------------------------------------------------'
------------------------------------------------------------------------'




But at least I, don't see you float away, And all the spilt milk,
--------------------------------------------------------------'
--------------------------------------------------------------'
--------------------------------------------6---9---6-----9---'
---1-----4----1----4---0h1-h2-4--2--1---6/7---7---7---7-------'
-2----2-----2---2---------------------------------------------'
--------------------------------------------------------------'

  sex and weight, It all will fall, fall right into place.
------------------------------------------------------------------------'
-----------------------------------0------------------------------------'
------6----9----6------9------1----------1-----4---1--------------------'
--6/7---7----7-----7------1/2---2-----2-----2----2----0-h1--h2--4--2-1--'
------------------------------------------------------------------------'
------------------------------------------------------------------------'






  
------------------------------------------------------'
----------------------------0-0-0-0-0-0-0-0-0-0-0-0---'
--1-1-1--1-1-1--1-1-1-1-1---2-2-2-2-2-2-2-2-2-2-2-2---'
--2-2-2--2-2-2--2-2-2-2-2---2-2-2-2-2-2-2-2-2-2-2-2---'
--2-2-2--2-2-2--2-2-2-2-2-----------------------------'
------------------------------------------------------'






Oh-------------------------- gotta see, gotta know right now
------------------------------------------------------------------'
----------------------------0-0-0-0-0-0-0-0-0-0-0-0---------------'
--1-1-1--1-1-1--1-1-1-1-1---2-2-2-2-2-2-2-2-2-2-2-2----1-1-1-1----'
--2-2-2--2-2-2--2-2-2-2-2---2-2-2-2-2-2-2-2-2-2-2-2----2-2-2-2----'
--2-2-2--2-2-2--2-2-2-2-2------------------------------2-2-2-2----'
------------------------------------------------------------------'





           What's that      riding     on    your     everything?
------------------------------------------------------------------'
----------------------------0-0-0-0-0-0-0-0-0-0-0-0---------------'
--1-1-1--1-1-1--1-1-1-1-1---2-2-2-2-2-2-2-2-2-2-2-2----1-1-1-1----'
--2-2-2--2-2-2--2-2-2-2-2---2-2-2-2-2-2-2-2-2-2-2-2----2-2-2-2----'
--2-2-2--2-2-2--2-2-2-2-2------------------------------2-2-2-2----'
------------------------------------------------------------------'





            It       isn't         anything         at    all
-------------------------------------------------------------------------'
----------------------------0-0-0-0-0-0-0-0-0-0-0-0-------------0-0-0-0--'
--1-1-1--1-1-1--1-1-1-1-1---2-2-2-2-2-2-2-2-2-2-2-2---1-1-1-1---2-2-2-2--'
--2-2-2--2-2-2--2-2-2-2-2---2-2-2-2-2-2-2-2-2-2-2-2---2-2-2-2---2-2-2-2--'
--2-2-2--2-2-2--2-2-2-2-2-----------------------------2-2-2-2------------'
-------------------------------------------------------------------------'





Oh------------------------ gotta see, gotta  know  right  now
------------------------------------------------------------------'
----------------------------0-0-0-0-0-0-0-0-0-0-0-0---------------'
--1-1-1--1-1-1--1-1-1-1-1---2-2-2-2-2-2-2-2-2-2-2-2----1-1-1-1----'
--2-2-2--2-2-2--2-2-2-2-2---2-2-2-2-2-2-2-2-2-2-2-2----2-2-2-2----'
--2-2-2--2-2-2--2-2-2-2-2------------------------------2-2-2-2----'
------------------------------------------------------------------'





            What's that         writing    on   your    shelf
------------------------------------------------------------------'
----------------------------0-0-0-0-0-0-0-0-0-0-0-0---------------'
--1-1-1--1-1-1--1-1-1-1-1---2-2-2-2-2-2-2-2-2-2-2-2----1-1-1-1----'
--2-2-2--2-2-2--2-2-2-2-2---2-2-2-2-2-2-2-2-2-2-2-2----2-2-2-2----'
--2-2-2--2-2-2--2-2-2-2-2------------------------------2-2-2-2----'
------------------------------------------------------------------'


          In the bathrooms       and  the  bad  motels? 
------------------------------------------------------------------'
----------------------------0-0-0-0-0-0-0-0-0-0-0-0---------------'
--1-1-1--1-1-1--1-1-1-1-1---2-2-2-2-2-2-2-2-2-2-2-2----1-1-1-1----'
--2-2-2--2-2-2--2-2-2-2-2---2-2-2-2-2-2-2-2-2-2-2-2----2-2-2-2----'
--2-2-2--2-2-2--2-2-2-2-2------------------------------2-2-2-2----'
------------------------------------------------------------------'
 


       No one really cared for   it  at all  not the 
------------------------------------------------------'
----------------------------0-0-0-0-0-0-0-0-0-0-0-0---'
--1-1-1--1-1-1--1-1-1-1-1---2-2-2-2-2-2-2-2-2-2-2-2---'
--2-2-2--2-2-2--2-2-2-2-2---2-2-2-2-2-2-2-2-2-2-2-2---'
--2-2-2--2-2-2--2-2-2-2-2-----------------------------'
------------------------------------------------------'

   gravity plan 
------------------------------------------------------'
----------------------------0-0-0-0-0-0-0-0-0-0-0-0---'
--1-1-1--1-1-1--1-1-1-1-1---2-2-2-2-2-2-2-2-2-2-2-2---'
--2-2-2--2-2-2--2-2-2-2-2---2-2-2-2-2-2-2-2-2-2-2-2---'
--2-2-2--2-2-2--2-2-2-2-2-----------------------------'
------------------------------------------------------'



Ear------ly, ear-------ly    in    the    morning
------------------------------------------------------'
----------------------------0-0-0-0-0-0-0-0-0-0-0-0---'
--1-1-1--1-1-1--1-1-1-1-1---2-2-2-2-2-2-2-2-2-2-2-2---'
--2-2-2--2-2-2--2-2-2-2-2---2-2-2-2-2-2-2-2-2-2-2-2---'
--2-2-2--2-2-2--2-2-2-2-2-----------------------------'
------------------------------------------------------'

  
 

  It pulls all  on       down my sore feet and i  wanna go back to sleep
-------------------------------------------------------------------------'
--------------------------0-0-0-0-0-0-0-0-0-0-0-0------------------------'
--1-1-1-1-1-1--1-1-1-1-1--2-2-2-2-2-2-2-2-2-2-2-2----1-1-1-1-1-1-1-------'
--2-2-2-2-2-2--2-2-2-2-2--2-2-2-2-2-2-2-2-2-2-2-2----2-2-2-2-2-2-2-------'
--2-2-2-2-2-2--2-2-2-2-2-----------------------------2-2-2-2-2-2-2-------'
-------------------------------------------------------------------------'


*continued for above riff* 

-------------------------------'
--0-0-0-0-0-0-0-0-0-0-0--------'
--2-2-2-2-2-2-2-2-2-2-2--------'
--2-2-2-2-2-2-2-2-2-2-2--------'
-------------------------------'
-------------------------------'

 

       
In the  motions and the things that you say, It all will fall, fall
------------------------------------------------------------------------'
-----------------------------------0------------------------------------'
------6----9----6------9------1----------1-----4---1--------------------'
--6/7---7----7-----7------1/2---2-----2-----2----2----0-h1--h2--4--2-1--'
------------------------------------------------------------------------'
------------------------------------------------------------------------'





right into place,As fruit drops, flesh it sags, Everything will
--------------------------------------------------------------'
--------------------------------------------------------------'
--------------------------------------------6---9---6-----9---'
---1-----4----1----4---0h1-h2-4--2--1---6/7---7---7---7-------'
-2----2-----2---2---------------------------------------------'
--------------------------------------------------------------'



   fall right into place, when we die some sink and some lay, 
------------------------------------------------------------------------'
-----------------------------------0------------------------------------'
------6----9----6------9------1----------1-----4---1--------------------'
--6/7---7----7-----7------1/2---2-----2-----2----2----0-h1--h2--4--2-1--'
------------------------------------------------------------------------'
------------------------------------------------------------------------'




But at least I, don't see you float away, And all the spilt milk,
--------------------------------------------------------------'
--------------------------------------------------------------'
--------------------------------------------6---9---6-----9---'
---1-----4----1----4---0h1-h2-4--2--1---6/7---7---7---7-------'
-2----2-----2---2---------------------------------------------'
--------------------------------------------------------------'

  sex and weight, It all will fall, fall right into place.
------------------------------------------------------------------------'
-----------------------------------0------------------------------------'
------6----9----6------9------1----------1-----4---1--------------------'
--6/7---7----7-----7------1/2---2-----2-----2----2----0-h1--h2--4--2-1--'
------------------------------------------------------------------------'
------------------------------------------------------------------------'






  
'
------------------------------------------------------'
----------------------------0-0-0-0-0-0-0-0-0-0-0-0---'
--1-1-1--1-1-1--1-1-1-1-1---2-2-2-2-2-2-2-2-2-2-2-2---'
--2-2-2--2-2-2--2-2-2-2-2---2-2-2-2-2-2-2-2-2-2-2-2---'
--2-2-2--2-2-2--2-2-2-2-2-----------------------------'
------------------------------------------------------'






Oh-------------------------- gotta see, gotta know right now
------------------------------------------------------------------'
----------------------------0-0-0-0-0-0-0-0-0-0-0-0---------------'
--1-1-1--1-1-1--1-1-1-1-1---2-2-2-2-2-2-2-2-2-2-2-2----1-1-1-1----'
--2-2-2--2-2-2--2-2-2-2-2---2-2-2-2-2-2-2-2-2-2-2-2----2-2-2-2----'
--2-2-2--2-2-2--2-2-2-2-2------------------------------2-2-2-2----'
------------------------------------------------------------------'





           What's that      riding     on    your     everything?
------------------------------------------------------------------'
----------------------------0-0-0-0-0-0-0-0-0-0-0-0---------------'
--1-1-1--1-1-1--1-1-1-1-1---2-2-2-2-2-2-2-2-2-2-2-2----1-1-1-1----'
--2-2-2--2-2-2--2-2-2-2-2---2-2-2-2-2-2-2-2-2-2-2-2----2-2-2-2----'
--2-2-2--2-2-2--2-2-2-2-2------------------------------2-2-2-2----'
------------------------------------------------------------------'





            It       isn't         anything         at    all
-------------------------------------------------------------------------'
----------------------------0-0-0-0-0-0-0-0-0-0-0-0-------------0-0-0-0--'
--1-1-1--1-1-1--1-1-1-1-1---2-2-2-2-2-2-2-2-2-2-2-2---1-1-1-1---2-2-2-2--'
--2-2-2--2-2-2--2-2-2-2-2---2-2-2-2-2-2-2-2-2-2-2-2---2-2-2-2---2-2-2-2--'
--2-2-2--2-2-2--2-2-2-2-2-----------------------------2-2-2-2------------'
-------------------------------------------------------------------------'





Oh------------------------ gotta see, gotta  know  right  now
------------------------------------------------------------------'
----------------------------0-0-0-0-0-0-0-0-0-0-0-0---------------'
--1-1-1--1-1-1--1-1-1-1-1---2-2-2-2-2-2-2-2-2-2-2-2----1-1-1-1----'
--2-2-2--2-2-2--2-2-2-2-2---2-2-2-2-2-2-2-2-2-2-2-2----2-2-2-2----'
--2-2-2--2-2-2--2-2-2-2-2------------------------------2-2-2-2----'
------------------------------------------------------------------'





            What's that         writing    on   your    shelf
------------------------------------------------------------------'
----------------------------0-0-0-0-0-0-0-0-0-0-0-0---------------'
--1-1-1--1-1-1--1-1-1-1-1---2-2-2-2-2-2-2-2-2-2-2-2----1-1-1-1----'
--2-2-2--2-2-2--2-2-2-2-2---2-2-2-2-2-2-2-2-2-2-2-2----2-2-2-2----'
--2-2-2--2-2-2--2-2-2-2-2------------------------------2-2-2-2----'
------------------------------------------------------------------'


          In the bathrooms       and  the  bad  motels? 
------------------------------------------------------------------'
----------------------------0-0-0-0-0-0-0-0-0-0-0-0---------------'
--1-1-1--1-1-1--1-1-1-1-1---2-2-2-2-2-2-2-2-2-2-2-2----1-1-1-1----'
--2-2-2--2-2-2--2-2-2-2-2---2-2-2-2-2-2-2-2-2-2-2-2----2-2-2-2----'
--2-2-2--2-2-2--2-2-2-2-2------------------------------2-2-2-2----'
------------------------------------------------------------------'
 


       No one really cared for   it  at all  not the 
------------------------------------------------------'
----------------------------0-0-0-0-0-0-0-0-0-0-0-0---'
--1-1-1--1-1-1--1-1-1-1-1---2-2-2-2-2-2-2-2-2-2-2-2---'
--2-2-2--2-2-2--2-2-2-2-2---2-2-2-2-2-2-2-2-2-2-2-2---'
--2-2-2--2-2-2--2-2-2-2-2-----------------------------'
------------------------------------------------------'

   gravity plan 
------------------------------------------------------'
----------------------------0-0-0-0-0-0-0-0-0-0-0-0---'
--1-1-1--1-1-1--1-1-1-1-1---2-2-2-2-2-2-2-2-2-2-2-2---'
--2-2-2--2-2-2--2-2-2-2-2---2-2-2-2-2-2-2-2-2-2-2-2---'
--2-2-2--2-2-2--2-2-2-2-2-----------------------------'
------------------------------------------------------'



Ear------ly, ear-------ly    in    the    morning
------------------------------------------------------'
----------------------------0-0-0-0-0-0-0-0-0-0-0-0---'
--1-1-1--1-1-1--1-1-1-1-1---2-2-2-2-2-2-2-2-2-2-2-2---'
--2-2-2--2-2-2--2-2-2-2-2---2-2-2-2-2-2-2-2-2-2-2-2---'
--2-2-2--2-2-2--2-2-2-2-2-----------------------------'
------------------------------------------------------'

  
 

  It pulls all  on       down my sore feet and i  wanna go back to sleep
-------------------------------------------------------------------------'
--------------------------0-0-0-0-0-0-0-0-0-0-0-0------------------------'
--1-1-1-1-1-1--1-1-1-1-1--2-2-2-2-2-2-2-2-2-2-2-2----1-1-1-1-1-1-1-------'
--2-2-2-2-2-2--2-2-2-2-2--2-2-2-2-2-2-2-2-2-2-2-2----2-2-2-2-2-2-2-------'
--2-2-2-2-2-2--2-2-2-2-2-----------------------------2-2-2-2-2-2-2-------'
-------------------------------------------------------------------------'


*continued for above riff* 

-------------------------------'
--0-0-0-0-0-0-0-0-0-0-0--------'
--2-2-2-2-2-2-2-2-2-2-2--------'
--2-2-2-2-2-2-2-2-2-2-2--------'
-------------------------------'
-------------------------------'

 

       
In the  motions and the things that you say, It all will fall, fall
------------------------------------------------------------------------'
-----------------------------------0------------------------------------'
------6----9----6------9------1----------1-----4---1--------------------'
--6/7---7----7-----7------1/2---2-----2-----2----2----0-h1--h2--4--2-1--'
------------------------------------------------------------------------'
------------------------------------------------------------------------'





right into place,As fruit drops, flesh it sags, Everything will
--------------------------------------------------------------'
--------------------------------------------------------------'
--------------------------------------------6---9---6-----9---'
---1-----4----1----4---0h1-h2-4--2--1---6/7---7---7---7-------'
-2----2-----2---2---------------------------------------------'
--------------------------------------------------------------'



   fall right into place, when we die some sink and some lay, 
------------------------------------------------------------------------'
-----------------------------------0------------------------------------'
------6----9----6------9------1----------1-----4---1--------------------'
--6/7---7----7-----7------1/2---2-----2-----2----2----0-h1--h2--4--2-1--'
------------------------------------------------------------------------'
------------------------------------------------------------------------'




But at least I, don't see you float away, And all the spilt milk,
--------------------------------------------------------------'
--------------------------------------------------------------'
--------------------------------------------6---9---6-----9---'
---1-----4----1----4---0h1-h2-4--2--1---6/7---7---7---7-------'
-2----2-----2---2---------------------------------------------'
--------------------------------------------------------------'

  sex and weight, It all will fall, fall right into place.
------------------------------------------------------------------------'
-----------------------------------0------------------------------------'
------6----9----6------9------1----------1-----4---1--------------------'
--6/7---7----7-----7------1/2---2-----2-----2----2----0-h1--h2--4--2-1--'
------------------------------------------------------------------------'
------------------------------------------------------------------------'



------------------------------------------------------'
----------------------------0-0-0-0-0-0-0-0-0-0-0-0---'
--1-1-1--1-1-1--1-1-1-1-1---2-2-2-2-2-2-2-2-2-2-2-2---'
--2-2-2--2-2-2--2-2-2-2-2---2-2-2-2-2-2-2-2-2-2-2-2---'
--2-2-2--2-2-2--2-2-2-2-2-----------------------------'
------------------------------------------------------'






Oh-------------------------- gotta see, gotta know right now
------------------------------------------------------------------'
----------------------------0-0-0-0-0-0-0-0-0-0-0-0---------------'
--1-1-1--1-1-1--1-1-1-1-1---2-2-2-2-2-2-2-2-2-2-2-2----1-1-1-1----'
--2-2-2--2-2-2--2-2-2-2-2---2-2-2-2-2-2-2-2-2-2-2-2----2-2-2-2----'
--2-2-2--2-2-2--2-2-2-2-2------------------------------2-2-2-2----'
------------------------------------------------------------------'





           What's that      riding     on    your     everything?
------------------------------------------------------------------'
----------------------------0-0-0-0-0-0-0-0-0-0-0-0---------------'
--1-1-1--1-1-1--1-1-1-1-1---2-2-2-2-2-2-2-2-2-2-2-2----1-1-1-1----'
--2-2-2--2-2-2--2-2-2-2-2---2-2-2-2-2-2-2-2-2-2-2-2----2-2-2-2----'
--2-2-2--2-2-2--2-2-2-2-2------------------------------2-2-2-2----'
------------------------------------------------------------------'





            It       isn't         anything         at    all
-------------------------------------------------------------------------'
----------------------------0-0-0-0-0-0-0-0-0-0-0-0-------------0-0-0-0--'
--1-1-1--1-1-1--1-1-1-1-1---2-2-2-2-2-2-2-2-2-2-2-2---1-1-1-1---2-2-2-2--'
--2-2-2--2-2-2--2-2-2-2-2---2-2-2-2-2-2-2-2-2-2-2-2---2-2-2-2---2-2-2-2--'
--2-2-2--2-2-2--2-2-2-2-2-----------------------------2-2-2-2------------'
-------------------------------------------------------------------------'





Oh------------------------ gotta see, gotta  know  right  now
------------------------------------------------------------------'
----------------------------0-0-0-0-0-0-0-0-0-0-0-0---------------'
--1-1-1--1-1-1--1-1-1-1-1---2-2-2-2-2-2-2-2-2-2-2-2----1-1-1-1----'
--2-2-2--2-2-2--2-2-2-2-2---2-2-2-2-2-2-2-2-2-2-2-2----2-2-2-2----'
--2-2-2--2-2-2--2-2-2-2-2------------------------------2-2-2-2----'
------------------------------------------------------------------'





            What's that         writing    on   your    shelf
------------------------------------------------------------------'
----------------------------0-0-0-0-0-0-0-0-0-0-0-0---------------'
--1-1-1--1-1-1--1-1-1-1-1---2-2-2-2-2-2-2-2-2-2-2-2----1-1-1-1----'
--2-2-2--2-2-2--2-2-2-2-2---2-2-2-2-2-2-2-2-2-2-2-2----2-2-2-2----'
--2-2-2--2-2-2--2-2-2-2-2------------------------------2-2-2-2----'
------------------------------------------------------------------'


          In the bathrooms       and  the  bad  motels? 
------------------------------------------------------------------'
----------------------------0-0-0-0-0-0-0-0-0-0-0-0---------------'
--1-1-1--1-1-1--1-1-1-1-1---2-2-2-2-2-2-2-2-2-2-2-2----1-1-1-1----'
--2-2-2--2-2-2--2-2-2-2-2---2-2-2-2-2-2-2-2-2-2-2-2----2-2-2-2----'
--2-2-2--2-2-2--2-2-2-2-2------------------------------2-2-2-2----'
------------------------------------------------------------------'
 


       No one really cared for   it  at all  not the 
------------------------------------------------------'
----------------------------0-0-0-0-0-0-0-0-0-0-0-0---'
--1-1-1--1-1-1--1-1-1-1-1---2-2-2-2-2-2-2-2-2-2-2-2---'
--2-2-2--2-2-2--2-2-2-2-2---2-2-2-2-2-2-2-2-2-2-2-2---'
--2-2-2--2-2-2--2-2-2-2-2-----------------------------'
------------------------------------------------------'

   gravity plan 
------------------------------------------------------'
----------------------------0-0-0-0-0-0-0-0-0-0-0-0---'
--1-1-1--1-1-1--1-1-1-1-1---2-2-2-2-2-2-2-2-2-2-2-2---'
--2-2-2--2-2-2--2-2-2-2-2---2-2-2-2-2-2-2-2-2-2-2-2---'
--2-2-2--2-2-2--2-2-2-2-2-----------------------------'
------------------------------------------------------'



Ear------ly, ear-------ly    in    the    morning
------------------------------------------------------'
----------------------------0-0-0-0-0-0-0-0-0-0-0-0---'
--1-1-1--1-1-1--1-1-1-1-1---2-2-2-2-2-2-2-2-2-2-2-2---'
--2-2-2--2-2-2--2-2-2-2-2---2-2-2-2-2-2-2-2-2-2-2-2---'
--2-2-2--2-2-2--2-2-2-2-2-----------------------------'
------------------------------------------------------'

  
 

  It pulls all  on       down my sore feet and i  wanna go back to sleep
-------------------------------------------------------------------------'
--------------------------0-0-0-0-0-0-0-0-0-0-0-0------------------------'
--1-1-1-1-1-1--1-1-1-1-1--2-2-2-2-2-2-2-2-2-2-2-2----1-1-1-1-1-1-1-------'
--2-2-2-2-2-2--2-2-2-2-2--2-2-2-2-2-2-2-2-2-2-2-2----2-2-2-2-2-2-2-------'
--2-2-2-2-2-2--2-2-2-2-2-----------------------------2-2-2-2-2-2-2-------'
-------------------------------------------------------------------------'


*continued for above riff* 

-------------------------------'
--0-0-0-0-0-0-0-0-0-0-0--------'
--2-2-2-2-2-2-2-2-2-2-2--------'
--2-2-2-2-2-2-2-2-2-2-2--------'
-------------------------------'
-------------------------------'

 

       
In the  motions and the things that you say, It all will fall, fall
------------------------------------------------------------------------'
-----------------------------------0------------------------------------'
------6----9----6------9------1----------1-----4---1--------------------'
--6/7---7----7-----7------1/2---2-----2-----2----2----0-h1--h2--4--2-1--'
------------------------------------------------------------------------'
------------------------------------------------------------------------'





right into place,As fruit drops, flesh it sags, Everything will
--------------------------------------------------------------'
--------------------------------------------------------------'
--------------------------------------------6---9---6-----9---'
---1-----4----1----4---0h1-h2-4--2--1---6/7---7---7---7-------'
-2----2-----2---2---------------------------------------------'
--------------------------------------------------------------'



   fall right into place, when we die some sink and some lay, 
------------------------------------------------------------------------'
-----------------------------------0------------------------------------'
------6----9----6------9------1----------1-----4---1--------------------'
--6/7---7----7-----7------1/2---2-----2-----2----2----0-h1--h2--4--2-1--'
------------------------------------------------------------------------'
------------------------------------------------------------------------'




But at least I, don't see you float away, And all the spilt milk,
--------------------------------------------------------------'
--------------------------------------------------------------'
--------------------------------------------6---9---6-----9---'
---1-----4----1----4---0h1-h2-4--2--1---6/7---7---7---7-------'
-2----2-----2---2---------------------------------------------'
--------------------------------------------------------------'

  sex and weight, It all will fall, fall right into place.
------------------------------------------------------------------------'
-----------------------------------0------------------------------------'
------6----9----6------9------1----------1-----4---1--------------------'
--6/7---7----7-----7------1/2---2-----2-----2----2----0-h1--h2--4--2-1--'
------------------------------------------------------------------------'
------------------------------------------------------------------------'


------------------------------------------------------'
----------------------------0-0-0-0-0-0-0-0-0-0-0-0---'
--1-1-1--1-1-1--1-1-1-1-1---2-2-2-2-2-2-2-2-2-2-2-2---'
--2-2-2--2-2-2--2-2-2-2-2---2-2-2-2-2-2-2-2-2-2-2-2---'
--2-2-2--2-2-2--2-2-2-2-2-----------------------------'
------------------------------------------------------'






Oh-------------------------- gotta see, gotta know right now
------------------------------------------------------------------'
----------------------------0-0-0-0-0-0-0-0-0-0-0-0---------------'
--1-1-1--1-1-1--1-1-1-1-1---2-2-2-2-2-2-2-2-2-2-2-2----1-1-1-1----'
--2-2-2--2-2-2--2-2-2-2-2---2-2-2-2-2-2-2-2-2-2-2-2----2-2-2-2----'
--2-2-2--2-2-2--2-2-2-2-2------------------------------2-2-2-2----'
------------------------------------------------------------------'





           What's that      riding     on    your     everything?
------------------------------------------------------------------'
----------------------------0-0-0-0-0-0-0-0-0-0-0-0---------------'
--1-1-1--1-1-1--1-1-1-1-1---2-2-2-2-2-2-2-2-2-2-2-2----1-1-1-1----'
--2-2-2--2-2-2--2-2-2-2-2---2-2-2-2-2-2-2-2-2-2-2-2----2-2-2-2----'
--2-2-2--2-2-2--2-2-2-2-2------------------------------2-2-2-2----'
------------------------------------------------------------------'





            It       isn't         anything         at    all
-------------------------------------------------------------------------'
----------------------------0-0-0-0-0-0-0-0-0-0-0-0-------------0-0-0-0--'
--1-1-1--1-1-1--1-1-1-1-1---2-2-2-2-2-2-2-2-2-2-2-2---1-1-1-1---2-2-2-2--'
--2-2-2--2-2-2--2-2-2-2-2---2-2-2-2-2-2-2-2-2-2-2-2---2-2-2-2---2-2-2-2--'
--2-2-2--2-2-2--2-2-2-2-2-----------------------------2-2-2-2------------'
-------------------------------------------------------------------------'





Oh------------------------ gotta see, gotta  know  right  now
------------------------------------------------------------------'
----------------------------0-0-0-0-0-0-0-0-0-0-0-0---------------'
--1-1-1--1-1-1--1-1-1-1-1---2-2-2-2-2-2-2-2-2-2-2-2----1-1-1-1----'
--2-2-2--2-2-2--2-2-2-2-2---2-2-2-2-2-2-2-2-2-2-2-2----2-2-2-2----'
--2-2-2--2-2-2--2-2-2-2-2------------------------------2-2-2-2----'
------------------------------------------------------------------'





            What's that         writing    on   your    shelf
------------------------------------------------------------------'
----------------------------0-0-0-0-0-0-0-0-0-0-0-0---------------'
--1-1-1--1-1-1--1-1-1-1-1---2-2-2-2-2-2-2-2-2-2-2-2----1-1-1-1----'
--2-2-2--2-2-2--2-2-2-2-2---2-2-2-2-2-2-2-2-2-2-2-2----2-2-2-2----'
--2-2-2--2-2-2--2-2-2-2-2------------------------------2-2-2-2----'
------------------------------------------------------------------'


          In the bathrooms       and  the  bad  motels? 
------------------------------------------------------------------'
----------------------------0-0-0-0-0-0-0-0-0-0-0-0---------------'
--1-1-1--1-1-1--1-1-1-1-1---2-2-2-2-2-2-2-2-2-2-2-2----1-1-1-1----'
--2-2-2--2-2-2--2-2-2-2-2---2-2-2-2-2-2-2-2-2-2-2-2----2-2-2-2----'
--2-2-2--2-2-2--2-2-2-2-2------------------------------2-2-2-2----'
------------------------------------------------------------------'
 


       No one really cared for   it  at all  not the 
------------------------------------------------------'
----------------------------0-0-0-0-0-0-0-0-0-0-0-0---'
--1-1-1--1-1-1--1-1-1-1-1---2-2-2-2-2-2-2-2-2-2-2-2---'
--2-2-2--2-2-2--2-2-2-2-2---2-2-2-2-2-2-2-2-2-2-2-2---'
--2-2-2--2-2-2--2-2-2-2-2-----------------------------'
------------------------------------------------------'

   gravity plan 
------------------------------------------------------'
----------------------------0-0-0-0-0-0-0-0-0-0-0-0---'
--1-1-1--1-1-1--1-1-1-1-1---2-2-2-2-2-2-2-2-2-2-2-2---'
--2-2-2--2-2-2--2-2-2-2-2---2-2-2-2-2-2-2-2-2-2-2-2---'
--2-2-2--2-2-2--2-2-2-2-2-----------------------------'
------------------------------------------------------'



Ear------ly, ear-------ly    in    the    morning
------------------------------------------------------'
----------------------------0-0-0-0-0-0-0-0-0-0-0-0---'
--1-1-1--1-1-1--1-1-1-1-1---2-2-2-2-2-2-2-2-2-2-2-2---'
--2-2-2--2-2-2--2-2-2-2-2---2-2-2-2-2-2-2-2-2-2-2-2---'
--2-2-2--2-2-2--2-2-2-2-2-----------------------------'
------------------------------------------------------'

  
 

  It pulls all  on       down my sore feet and i  wanna go back to sleep
-------------------------------------------------------------------------'
--------------------------0-0-0-0-0-0-0-0-0-0-0-0------------------------'
--1-1-1-1-1-1--1-1-1-1-1--2-2-2-2-2-2-2-2-2-2-2-2----1-1-1-1-1-1-1-------'
--2-2-2-2-2-2--2-2-2-2-2--2-2-2-2-2-2-2-2-2-2-2-2----2-2-2-2-2-2-2-------'
--2-2-2-2-2-2--2-2-2-2-2-----------------------------2-2-2-2-2-2-2-------'
-------------------------------------------------------------------------'


*continued for above riff* 

-------------------------------'
--0-0-0-0-0-0-0-0-0-0-0--------'
--2-2-2-2-2-2-2-2-2-2-2--------'
--2-2-2-2-2-2-2-2-2-2-2--------'
-------------------------------'
-------------------------------'

 

       
In the  motions and the things that you say, It all will fall, fall
------------------------------------------------------------------------'
-----------------------------------0------------------------------------'
------6----9----6------9------1----------1-----4---1--------------------'
--6/7---7----7-----7------1/2---2-----2-----2----2----0-h1--h2--4--2-1--'
------------------------------------------------------------------------'
------------------------------------------------------------------------'





right into place,As fruit drops, flesh it sags, Everything will
--------------------------------------------------------------'
--------------------------------------------------------------'
--------------------------------------------6---9---6-----9---'
---1-----4----1----4---0h1-h2-4--2--1---6/7---7---7---7-------'
-2----2-----2---2---------------------------------------------'
--------------------------------------------------------------'



   fall right into place, when we die some sink and some lay, 
------------------------------------------------------------------------'
-----------------------------------0------------------------------------'
------6----9----6------9------1----------1-----4---1--------------------'
--6/7---7----7-----7------1/2---2-----2-----2----2----0-h1--h2--4--2-1--'
------------------------------------------------------------------------'
------------------------------------------------------------------------'




But at least I, don't see you float away, And all the spilt milk,
--------------------------------------------------------------'
--------------------------------------------------------------'
--------------------------------------------6---9---6-----9---'
---1-----4----1----4---0h1-h2-4--2--1---6/7---7---7---7-------'
-2----2-----2---2---------------------------------------------'
--------------------------------------------------------------'

  sex and weight, It all will fall, fall right into place.
------------------------------------------------------------------------'
-----------------------------------0------------------------------------'
------6----9----6------9------1----------1-----4---1--------------------'
--6/7---7----7-----7------1/2---2-----2-----2----2----0-h1--h2--4--2-1--'
------------------------------------------------------------------------'
------------------------------------------------------------------------'






  
------------------------------------------------------'
----------------------------0-0-0-0-0-0-0-0-0-0-0-0---'
--1-1-1--1-1-1--1-1-1-1-1---2-2-2-2-2-2-2-2-2-2-2-2---'
--2-2-2--2-2-2--2-2-2-2-2---2-2-2-2-2-2-2-2-2-2-2-2---'
--2-2-2--2-2-2--2-2-2-2-2-----------------------------'
------------------------------------------------------'






Oh-------------------------- gotta see, gotta know right now
------------------------------------------------------------------'
----------------------------0-0-0-0-0-0-0-0-0-0-0-0---------------'
--1-1-1--1-1-1--1-1-1-1-1---2-2-2-2-2-2-2-2-2-2-2-2----1-1-1-1----'
--2-2-2--2-2-2--2-2-2-2-2---2-2-2-2-2-2-2-2-2-2-2-2----2-2-2-2----'
--2-2-2--2-2-2--2-2-2-2-2------------------------------2-2-2-2----'
------------------------------------------------------------------'





           What's that      riding     on    your     everything?
------------------------------------------------------------------'
----------------------------0-0-0-0-0-0-0-0-0-0-0-0---------------'
--1-1-1--1-1-1--1-1-1-1-1---2-2-2-2-2-2-2-2-2-2-2-2----1-1-1-1----'
--2-2-2--2-2-2--2-2-2-2-2---2-2-2-2-2-2-2-2-2-2-2-2----2-2-2-2----'
--2-2-2--2-2-2--2-2-2-2-2------------------------------2-2-2-2----'
------------------------------------------------------------------'





            It       isn't         anything         at    all
-------------------------------------------------------------------------'
----------------------------0-0-0-0-0-0-0-0-0-0-0-0-------------0-0-0-0--'
--1-1-1--1-1-1--1-1-1-1-1---2-2-2-2-2-2-2-2-2-2-2-2---1-1-1-1---2-2-2-2--'
--2-2-2--2-2-2--2-2-2-2-2---2-2-2-2-2-2-2-2-2-2-2-2---2-2-2-2---2-2-2-2--'
--2-2-2--2-2-2--2-2-2-2-2-----------------------------2-2-2-2------------'
-------------------------------------------------------------------------'





Oh------------------------ gotta see, gotta  know  right  now
------------------------------------------------------------------'
----------------------------0-0-0-0-0-0-0-0-0-0-0-0---------------'
--1-1-1--1-1-1--1-1-1-1-1---2-2-2-2-2-2-2-2-2-2-2-2----1-1-1-1----'
--2-2-2--2-2-2--2-2-2-2-2---2-2-2-2-2-2-2-2-2-2-2-2----2-2-2-2----'
--2-2-2--2-2-2--2-2-2-2-2------------------------------2-2-2-2----'
------------------------------------------------------------------'





            What's that         writing    on   your    shelf
------------------------------------------------------------------'
----------------------------0-0-0-0-0-0-0-0-0-0-0-0---------------'
--1-1-1--1-1-1--1-1-1-1-1---2-2-2-2-2-2-2-2-2-2-2-2----1-1-1-1----'
--2-2-2--2-2-2--2-2-2-2-2---2-2-2-2-2-2-2-2-2-2-2-2----2-2-2-2----'
--2-2-2--2-2-2--2-2-2-2-2------------------------------2-2-2-2----'
------------------------------------------------------------------'


          In the bathrooms       and  the  bad  motels? 
------------------------------------------------------------------'
----------------------------0-0-0-0-0-0-0-0-0-0-0-0---------------'
--1-1-1--1-1-1--1-1-1-1-1---2-2-2-2-2-2-2-2-2-2-2-2----1-1-1-1----'
--2-2-2--2-2-2--2-2-2-2-2---2-2-2-2-2-2-2-2-2-2-2-2----2-2-2-2----'
--2-2-2--2-2-2--2-2-2-2-2------------------------------2-2-2-2----'
------------------------------------------------------------------'
 


       No one really cared for   it  at all  not the 
------------------------------------------------------'
----------------------------0-0-0-0-0-0-0-0-0-0-0-0---'
--1-1-1--1-1-1--1-1-1-1-1---2-2-2-2-2-2-2-2-2-2-2-2---'
--2-2-2--2-2-2--2-2-2-2-2---2-2-2-2-2-2-2-2-2-2-2-2---'
--2-2-2--2-2-2--2-2-2-2-2-----------------------------'
------------------------------------------------------'

   gravity plan 
------------------------------------------------------'
----------------------------0-0-0-0-0-0-0-0-0-0-0-0---'
--1-1-1--1-1-1--1-1-1-1-1---2-2-2-2-2-2-2-2-2-2-2-2---'
--2-2-2--2-2-2--2-2-2-2-2---2-2-2-2-2-2-2-2-2-2-2-2---'
--2-2-2--2-2-2--2-2-2-2-2-----------------------------'
------------------------------------------------------'



Ear------ly, ear-------ly    in    the    morning
------------------------------------------------------'
----------------------------0-0-0-0-0-0-0-0-0-0-0-0---'
--1-1-1--1-1-1--1-1-1-1-1---2-2-2-2-2-2-2-2-2-2-2-2---'
--2-2-2--2-2-2--2-2-2-2-2---2-2-2-2-2-2-2-2-2-2-2-2---'
--2-2-2--2-2-2--2-2-2-2-2-----------------------------'
------------------------------------------------------'

  
 

  It pulls all  on       down my sore feet and i  wanna go back to sleep
-------------------------------------------------------------------------'
--------------------------0-0-0-0-0-0-0-0-0-0-0-0------------------------'
--1-1-1-1-1-1--1-1-1-1-1--2-2-2-2-2-2-2-2-2-2-2-2----1-1-1-1-1-1-1-------'
--2-2-2-2-2-2--2-2-2-2-2--2-2-2-2-2-2-2-2-2-2-2-2----2-2-2-2-2-2-2-------'
--2-2-2-2-2-2--2-2-2-2-2-----------------------------2-2-2-2-2-2-2-------'
-------------------------------------------------------------------------'


*continued for above riff* 

-------------------------------'
--0-0-0-0-0-0-0-0-0-0-0--------'
--2-2-2-2-2-2-2-2-2-2-2--------'
--2-2-2-2-2-2-2-2-2-2-2--------'
-------------------------------'
-------------------------------'

 

       
In the  motions and the things that you say, It all will fall, fall
------------------------------------------------------------------------'
-----------------------------------0------------------------------------'
------6----9----6------9------1----------1-----4---1--------------------'
--6/7---7----7-----7------1/2---2-----2-----2----2----0-h1--h2--4--2-1--'
------------------------------------------------------------------------'
------------------------------------------------------------------------'





right into place,As fruit drops, flesh it sags, Everything will
--------------------------------------------------------------'
--------------------------------------------------------------'
--------------------------------------------6---9---6-----9---'
---1-----4----1----4---0h1-h2-4--2--1---6/7---7---7---7-------'
-2----2-----2---2---------------------------------------------'
--------------------------------------------------------------'



   fall right into place, when we die some sink and some lay, 
------------------------------------------------------------------------'
-----------------------------------0------------------------------------'
------6----9----6------9------1----------1-----4---1--------------------'
--6/7---7----7-----7------1/2---2-----2-----2----2----0-h1--h2--4--2-1--'
------------------------------------------------------------------------'
------------------------------------------------------------------------'




But at least I, don't see you float away, And all the spilt milk,
--------------------------------------------------------------'
--------------------------------------------------------------'
--------------------------------------------6---9---6-----9---'
---1-----4----1----4---0h1-h2-4--2--1---6/7---7---7---7-------'
-2----2-----2---2---------------------------------------------'
--------------------------------------------------------------'

  sex and weight, It all will fall, fall right into place.
------------------------------------------------------------------------'
-----------------------------------0------------------------------------'
------6----9----6------9------1----------1-----4---1--------------------'
--6/7---7----7-----7------1/2---2-----2-----2----2----0-h1--h2--4--2-1--'
------------------------------------------------------------------------'
------------------------------------------------------------------------'






  
'
------------------------------------------------------'
----------------------------0-0-0-0-0-0-0-0-0-0-0-0---'
--1-1-1--1-1-1--1-1-1-1-1---2-2-2-2-2-2-2-2-2-2-2-2---'
--2-2-2--2-2-2--2-2-2-2-2---2-2-2-2-2-2-2-2-2-2-2-2---'
--2-2-2--2-2-2--2-2-2-2-2-----------------------------'
------------------------------------------------------'






Oh-------------------------- gotta see, gotta know right now
------------------------------------------------------------------'
----------------------------0-0-0-0-0-0-0-0-0-0-0-0---------------'
--1-1-1--1-1-1--1-1-1-1-1---2-2-2-2-2-2-2-2-2-2-2-2----1-1-1-1----'
--2-2-2--2-2-2--2-2-2-2-2---2-2-2-2-2-2-2-2-2-2-2-2----2-2-2-2----'
--2-2-2--2-2-2--2-2-2-2-2------------------------------2-2-2-2----'
------------------------------------------------------------------'





           What's that      riding     on    your     everything?
------------------------------------------------------------------'
----------------------------0-0-0-0-0-0-0-0-0-0-0-0---------------'
--1-1-1--1-1-1--1-1-1-1-1---2-2-2-2-2-2-2-2-2-2-2-2----1-1-1-1----'
--2-2-2--2-2-2--2-2-2-2-2---2-2-2-2-2-2-2-2-2-2-2-2----2-2-2-2----'
--2-2-2--2-2-2--2-2-2-2-2------------------------------2-2-2-2----'
------------------------------------------------------------------'





            It       isn't         anything         at    all
-------------------------------------------------------------------------'
----------------------------0-0-0-0-0-0-0-0-0-0-0-0-------------0-0-0-0--'
--1-1-1--1-1-1--1-1-1-1-1---2-2-2-2-2-2-2-2-2-2-2-2---1-1-1-1---2-2-2-2--'
--2-2-2--2-2-2--2-2-2-2-2---2-2-2-2-2-2-2-2-2-2-2-2---2-2-2-2---2-2-2-2--'
--2-2-2--2-2-2--2-2-2-2-2-----------------------------2-2-2-2------------'
-------------------------------------------------------------------------'





Oh------------------------ gotta see, gotta  know  right  now
------------------------------------------------------------------'
----------------------------0-0-0-0-0-0-0-0-0-0-0-0---------------'
--1-1-1--1-1-1--1-1-1-1-1---2-2-2-2-2-2-2-2-2-2-2-2----1-1-1-1----'
--2-2-2--2-2-2--2-2-2-2-2---2-2-2-2-2-2-2-2-2-2-2-2----2-2-2-2----'
--2-2-2--2-2-2--2-2-2-2-2------------------------------2-2-2-2----'
------------------------------------------------------------------'





            What's that         writing    on   your    shelf
------------------------------------------------------------------'
----------------------------0-0-0-0-0-0-0-0-0-0-0-0---------------'
--1-1-1--1-1-1--1-1-1-1-1---2-2-2-2-2-2-2-2-2-2-2-2----1-1-1-1----'
--2-2-2--2-2-2--2-2-2-2-2---2-2-2-2-2-2-2-2-2-2-2-2----2-2-2-2----'
--2-2-2--2-2-2--2-2-2-2-2------------------------------2-2-2-2----'
------------------------------------------------------------------'


          In the bathrooms       and  the  bad  motels? 
------------------------------------------------------------------'
----------------------------0-0-0-0-0-0-0-0-0-0-0-0---------------'
--1-1-1--1-1-1--1-1-1-1-1---2-2-2-2-2-2-2-2-2-2-2-2----1-1-1-1----'
--2-2-2--2-2-2--2-2-2-2-2---2-2-2-2-2-2-2-2-2-2-2-2----2-2-2-2----'
--2-2-2--2-2-2--2-2-2-2-2------------------------------2-2-2-2----'
------------------------------------------------------------------'
 


       No one really cared for   it  at all  not the 
------------------------------------------------------'
----------------------------0-0-0-0-0-0-0-0-0-0-0-0---'
--1-1-1--1-1-1--1-1-1-1-1---2-2-2-2-2-2-2-2-2-2-2-2---'
--2-2-2--2-2-2--2-2-2-2-2---2-2-2-2-2-2-2-2-2-2-2-2---'
--2-2-2--2-2-2--2-2-2-2-2-----------------------------'
------------------------------------------------------'

   gravity plan 
------------------------------------------------------'
----------------------------0-0-0-0-0-0-0-0-0-0-0-0---'
--1-1-1--1-1-1--1-1-1-1-1---2-2-2-2-2-2-2-2-2-2-2-2---'
--2-2-2--2-2-2--2-2-2-2-2---2-2-2-2-2-2-2-2-2-2-2-2---'
--2-2-2--2-2-2--2-2-2-2-2-----------------------------'
------------------------------------------------------'



Ear------ly, ear-------ly    in    the    morning
------------------------------------------------------'
----------------------------0-0-0-0-0-0-0-0-0-0-0-0---'
--1-1-1--1-1-1--1-1-1-1-1---2-2-2-2-2-2-2-2-2-2-2-2---'
--2-2-2--2-2-2--2-2-2-2-2---2-2-2-2-2-2-2-2-2-2-2-2---'
--2-2-2--2-2-2--2-2-2-2-2-----------------------------'
------------------------------------------------------'

  
 

  It pulls all  on       down my sore feet and i  wanna go back to sleep
-------------------------------------------------------------------------'
--------------------------0-0-0-0-0-0-0-0-0-0-0-0------------------------'
--1-1-1-1-1-1--1-1-1-1-1--2-2-2-2-2-2-2-2-2-2-2-2----1-1-1-1-1-1-1-------'
--2-2-2-2-2-2--2-2-2-2-2--2-2-2-2-2-2-2-2-2-2-2-2----2-2-2-2-2-2-2-------'
--2-2-2-2-2-2--2-2-2-2-2-----------------------------2-2-2-2-2-2-2-------'
-------------------------------------------------------------------------'


*continued for above riff* 

-------------------------------'
--0-0-0-0-0-0-0-0-0-0-0--------'
--2-2-2-2-2-2-2-2-2-2-2--------'
--2-2-2-2-2-2-2-2-2-2-2--------'
-------------------------------'
-------------------------------'

 

       
In the  motions and the things that you say, It all will fall, fall
------------------------------------------------------------------------'
-----------------------------------0------------------------------------'
------6----9----6------9------1----------1-----4---1--------------------'
--6/7---7----7-----7------1/2---2-----2-----2----2----0-h1--h2--4--2-1--'
------------------------------------------------------------------------'
------------------------------------------------------------------------'





right into place,As fruit drops, flesh it sags, Everything will
--------------------------------------------------------------'
--------------------------------------------------------------'
--------------------------------------------6---9---6-----9---'
---1-----4----1----4---0h1-h2-4--2--1---6/7---7---7---7-------'
-2----2-----2---2---------------------------------------------'
--------------------------------------------------------------'



   fall right into place, when we die some sink and some lay, 
------------------------------------------------------------------------'
-----------------------------------0------------------------------------'
------6----9----6------9------1----------1-----4---1--------------------'
--6/7---7----7-----7------1/2---2-----2-----2----2----0-h1--h2--4--2-1--'
------------------------------------------------------------------------'
------------------------------------------------------------------------'




But at least I, don't see you float away, And all the spilt milk,
--------------------------------------------------------------'
--------------------------------------------------------------'
--------------------------------------------6---9---6-----9---'
---1-----4----1----4---0h1-h2-4--2--1---6/7---7---7---7-------'
-2----2-----2---2---------------------------------------------'
--------------------------------------------------------------'

  sex and weight, It all will fall, fall right into place.
------------------------------------------------------------------------'
-----------------------------------0------------------------------------'
------6----9----6------9------1----------1-----4---1--------------------'
--6/7---7----7-----7------1/2---2-----2-----2----2----0-h1--h2--4--2-1--'
------------------------------------------------------------------------'
------------------------------------------------------------------------'



------------------------------------------------------'
----------------------------0-0-0-0-0-0-0-0-0-0-0-0---'
--1-1-1--1-1-1--1-1-1-1-1---2-2-2-2-2-2-2-2-2-2-2-2---'
--2-2-2--2-2-2--2-2-2-2-2---2-2-2-2-2-2-2-2-2-2-2-2---'
--2-2-2--2-2-2--2-2-2-2-2-----------------------------'
------------------------------------------------------'






Oh-------------------------- gotta see, gotta know right now
------------------------------------------------------------------'
----------------------------0-0-0-0-0-0-0-0-0-0-0-0---------------'
--1-1-1--1-1-1--1-1-1-1-1---2-2-2-2-2-2-2-2-2-2-2-2----1-1-1-1----'
--2-2-2--2-2-2--2-2-2-2-2---2-2-2-2-2-2-2-2-2-2-2-2----2-2-2-2----'
--2-2-2--2-2-2--2-2-2-2-2------------------------------2-2-2-2----'
------------------------------------------------------------------'





           What's that      riding     on    your     everything?
------------------------------------------------------------------'
----------------------------0-0-0-0-0-0-0-0-0-0-0-0---------------'
--1-1-1--1-1-1--1-1-1-1-1---2-2-2-2-2-2-2-2-2-2-2-2----1-1-1-1----'
--2-2-2--2-2-2--2-2-2-2-2---2-2-2-2-2-2-2-2-2-2-2-2----2-2-2-2----'
--2-2-2--2-2-2--2-2-2-2-2------------------------------2-2-2-2----'
------------------------------------------------------------------'





            It       isn't         anything         at    all
-------------------------------------------------------------------------'
----------------------------0-0-0-0-0-0-0-0-0-0-0-0-------------0-0-0-0--'
--1-1-1--1-1-1--1-1-1-1-1---2-2-2-2-2-2-2-2-2-2-2-2---1-1-1-1---2-2-2-2--'
--2-2-2--2-2-2--2-2-2-2-2---2-2-2-2-2-2-2-2-2-2-2-2---2-2-2-2---2-2-2-2--'
--2-2-2--2-2-2--2-2-2-2-2-----------------------------2-2-2-2------------'
-------------------------------------------------------------------------'





Oh------------------------ gotta see, gotta  know  right  now
------------------------------------------------------------------'
----------------------------0-0-0-0-0-0-0-0-0-0-0-0---------------'
--1-1-1--1-1-1--1-1-1-1-1---2-2-2-2-2-2-2-2-2-2-2-2----1-1-1-1----'
--2-2-2--2-2-2--2-2-2-2-2---2-2-2-2-2-2-2-2-2-2-2-2----2-2-2-2----'
--2-2-2--2-2-2--2-2-2-2-2------------------------------2-2-2-2----'
------------------------------------------------------------------'





            What's that         writing    on   your    shelf
------------------------------------------------------------------'
----------------------------0-0-0-0-0-0-0-0-0-0-0-0---------------'
--1-1-1--1-1-1--1-1-1-1-1---2-2-2-2-2-2-2-2-2-2-2-2----1-1-1-1----'
--2-2-2--2-2-2--2-2-2-2-2---2-2-2-2-2-2-2-2-2-2-2-2----2-2-2-2----'
--2-2-2--2-2-2--2-2-2-2-2------------------------------2-2-2-2----'
------------------------------------------------------------------'


          In the bathrooms       and  the  bad  motels? 
------------------------------------------------------------------'
----------------------------0-0-0-0-0-0-0-0-0-0-0-0---------------'
--1-1-1--1-1-1--1-1-1-1-1---2-2-2-2-2-2-2-2-2-2-2-2----1-1-1-1----'
--2-2-2--2-2-2--2-2-2-2-2---2-2-2-2-2-2-2-2-2-2-2-2----2-2-2-2----'
--2-2-2--2-2-2--2-2-2-2-2------------------------------2-2-2-2----'
------------------------------------------------------------------'
 


       No one really cared for   it  at all  not the 
------------------------------------------------------'
----------------------------0-0-0-0-0-0-0-0-0-0-0-0---'
--1-1-1--1-1-1--1-1-1-1-1---2-2-2-2-2-2-2-2-2-2-2-2---'
--2-2-2--2-2-2--2-2-2-2-2---2-2-2-2-2-2-2-2-2-2-2-2---'
--2-2-2--2-2-2--2-2-2-2-2-----------------------------'
------------------------------------------------------'

   gravity plan 
------------------------------------------------------'
----------------------------0-0-0-0-0-0-0-0-0-0-0-0---'
--1-1-1--1-1-1--1-1-1-1-1---2-2-2-2-2-2-2-2-2-2-2-2---'
--2-2-2--2-2-2--2-2-2-2-2---2-2-2-2-2-2-2-2-2-2-2-2---'
--2-2-2--2-2-2--2-2-2-2-2-----------------------------'
------------------------------------------------------'



Ear------ly, ear-------ly    in    the    morning
------------------------------------------------------'
----------------------------0-0-0-0-0-0-0-0-0-0-0-0---'
--1-1-1--1-1-1--1-1-1-1-1---2-2-2-2-2-2-2-2-2-2-2-2---'
--2-2-2--2-2-2--2-2-2-2-2---2-2-2-2-2-2-2-2-2-2-2-2---'
--2-2-2--2-2-2--2-2-2-2-2-----------------------------'
------------------------------------------------------'

  
 

  It pulls all  on       down my sore feet and i  wanna go back to sleep
-------------------------------------------------------------------------'
--------------------------0-0-0-0-0-0-0-0-0-0-0-0------------------------'
--1-1-1-1-1-1--1-1-1-1-1--2-2-2-2-2-2-2-2-2-2-2-2----1-1-1-1-1-1-1-------'
--2-2-2-2-2-2--2-2-2-2-2--2-2-2-2-2-2-2-2-2-2-2-2----2-2-2-2-2-2-2-------'
--2-2-2-2-2-2--2-2-2-2-2-----------------------------2-2-2-2-2-2-2-------'
-------------------------------------------------------------------------'


*continued for above riff* 

-------------------------------'
--0-0-0-0-0-0-0-0-0-0-0--------'
--2-2-2-2-2-2-2-2-2-2-2--------'
--2-2-2-2-2-2-2-2-2-2-2--------'
-------------------------------'
-------------------------------'

 

       
In the  motions and the things that you say, It all will fall, fall
------------------------------------------------------------------------'
-----------------------------------0------------------------------------'
------6----9----6------9------1----------1-----4---1--------------------'
--6/7---7----7-----7------1/2---2-----2-----2----2----0-h1--h2--4--2-1--'
------------------------------------------------------------------------'
------------------------------------------------------------------------'





right into place,As fruit drops, flesh it sags, Everything will
--------------------------------------------------------------'
--------------------------------------------------------------'
--------------------------------------------6---9---6-----9---'
---1-----4----1----4---0h1-h2-4--2--1---6/7---7---7---7-------'
-2----2-----2---2---------------------------------------------'
--------------------------------------------------------------'



   fall right into place, when we die some sink and some lay, 
------------------------------------------------------------------------'
-----------------------------------0------------------------------------'
------6----9----6------9------1----------1-----4---1--------------------'
--6/7---7----7-----7------1/2---2-----2-----2----2----0-h1--h2--4--2-1--'
------------------------------------------------------------------------'
------------------------------------------------------------------------'




But at least I, don't see you float away, And all the spilt milk,
--------------------------------------------------------------'
--------------------------------------------------------------'
--------------------------------------------6---9---6-----9---'
---1-----4----1----4---0h1-h2-4--2--1---6/7---7---7---7-------'
-2----2-----2---2---------------------------------------------'
--------------------------------------------------------------'

  sex and weight, It all will fall, fall right into place.
------------------------------------------------------------------------'
-----------------------------------0------------------------------------'
------6----9----6------9------1----------1-----4---1--------------------'
--6/7---7----7-----7------1/2---2-----2-----2----2----0-h1--h2--4--2-1--'
------------------------------------------------------------------------'
------------------------------------------------------------------------'

 and thats about it just do it 2x and end 
bobbytabasco@yahoo.com

            
            
Suggest correction
Creating personal tab
Creating personal tab
You can edit any tab online and save it as your Personal.

You can edit, replace or remove any tab part or add personal notes – all changes will be seen only by you.

Personal tabs can be accessed anytime from any device, even offline.
Learn more »
Give kudos to tab author, rate the tab!
1 2 3 4 5
comments
print report bad tab
3 comments total.
+1 reply
♥ß☼ßãO♥ (Chris) 10 Dec 25, 2007 07:23 AM

nice job bro.
keep it up.

+1 reply
bobbytabasco 224 Dec 25, 2007 02:37 PM

i don't know how or why it happened but it,its not supposed to go the many times ...oops

+1 reply
♥ß☼ßãO♥ (Chris) 10 Dec 26, 2007 06:35 PM

what?

guest
You may want to rate the tab now too:
select rating
Wanna post a correction for this tab? Suggest correction