Oops, an error
Loading. Please wait.

Here It Comes tab

version 3
version 3

Whole song

8,136 views 15 this week
1 commentread comment
1 2 3 4 5
x 8
add to favorites
×
Save as Personal and add changes to this tab that will be seen only by you. Learn more ›
×
You can save this tab as Personal to edit and correct it or add notes. All changes will be seen only by you. Learn more »
launch autoscroll
font size
0
reset
how to read this tab
guitar tuner
edit
Autoscroll
slow
fast
+/-
esc
set tempo
stop
Author
Difficulty
intermediate
Here It Comes
Modest Mouse
Everywhere and His Nasty Parlour Tricks


e|-------------7-5-------------|-------------7-5-------------|
B|---5h7p5---5-----5h7p5-0-7---|---5h7p5---5-----5h7p5-0-3---|
G|---------7-------------------|---------7-------------------|
D|-----------------------------|-----------------------------|  x2
A|-----------------------------|-----------------------------|
E|-----------------------------|-----------------------------| 

Walk to your house on my lunch break...
e|-----------------------------|-----------------------|
B|-----------------------------|-----------------------|
G|---9-9-9-11-11-11-4--4-4-4---|---9-9-9-11-11-11-7----|
D|---0-0-0-0--0--0--0--0-0-0---|---0-0-0-0--0--0--0----|  x4
A|-----------------------------|-----------------------|
E|-----------------------------|-----------------------|

                                           Grass grows green...
e|-------------7-5-------------|-------------7-5-------------|
B|---5h7p5---5-----5h7p5-0-7---|---5h7p5---5-----5h7p5-0-3---|
G|---------7-------------------|---------7-------------------|
D|-----------------------------|-----------------------------|  x2
A|-----------------------------|-----------------------------|
E|-----------------------------|-----------------------------| 

You'd always told me life's a dam that breaks, well...
e|-----------------------------|-----------------------|
B|-----------------------------|-----------------------|
G|---9-9-9-11-11-11-4--4-4-4---|---9-9-9-11-11-11-7----|
D|---0-0-0-0--0--0--0--0-0-0---|---0-0-0-0--0--0--0----|  x4
A|-----------------------------|-----------------------|
E|-----------------------------|-----------------------|

                                           Keep it clean...
e|-------------7-5-------------|------------7-5-------------|
B|---5h7p5---5-----5h7p5-0-7---|--5h7p5---5-----5h7p5-0-3---|
G|---------7-------------------|--------7-------------------|
D|-----------------------------|----------------------------|  x2
A|-----------------------------|----------------------------|
E|-----------------------------|----------------------------| 

The empty promise-makers said...
e|-----------------------------|-----------------------|
B|-----------------------------|-----------------------|
G|---9-9-9-11-11-11-4--4-4-4---|---9-9-9-11-11-11-7----|
D|---0-0-0-0--0--0--0--0-0-0---|---0-0-0-0--0--0--0----|  x6
A|-----------------------------|-----------------------|
E|-----------------------------|-----------------------|


e|-------------7-5-------------|-------------7-5-------------|
B|---5h7p5---5-----5h7p5-0-7---|---5h7p5---5-----5h7p5-0-3---|
G|---------7-------------------|---------7-------------------|
D|-----------------------------|-----------------------------|  x3
A|-----------------------------|-----------------------------|
E|-----------------------------|-----------------------------| 

            
            
Suggest correction
Creating personal tab
Creating personal tab
You can edit any tab online and save it as your Personal.

You can edit, replace or remove any tab part or add personal notes – all changes will be seen only by you.

Personal tabs can be accessed anytime from any device, even offline.
Learn more »
comments
print report bad tab
1 comment total.
+1 reply
Pizzavenger 30 Jul 27, 2012 10:58 AM

e|-----------7-5---------------|-----------7-5---------------|
B|---5h7----------5h7----7-----|---5h7----------5h7----3-----|
G|-------4-7----------4--------|-------4-7----------4--------|
D|-----------------------------|-----------------------------|
A|-----------------------------|-----------------------------|
E|-----------------------------|-----------------------------|

guest
You may want to rate the tab now too:
select rating
Wanna post a correction for this tab? Suggest correction