Oops, an error
Loading. Please wait.

King Rat intro tab

version 1
version 1

Whole song

8,525 views 1 this week
4 commentsread comments
1 2 3 4 5
2 more votes to show rating
add to favorites
×
Save as Personal and add changes to this tab that will be seen only by you. Learn more ›
×
You can save this tab as Personal to edit and correct it or add notes. All changes will be seen only by you. Learn more »
launch autoscroll
font size
0
reset
how to read this tab
guitar tuner
edit
Autoscroll
slow
fast
+/-
esc
set tempo
stop
Author
-------------------------------------------------------------------------------
                                                 KING RAT - Modest Mouse
-------------------------------------------------------------------------------
Tabbed by: Daniel O Henry
Email: reducedfatcreamy@yahoo.com

Tuning: Standard

e|-----6----6---|
B|---4--4---4---|
G|---5----5-5---|  4X
D|--------------|
A|--------------|
E|--------------|

e|------3------------3-------------3-----------|
B|----4--7-4-------4--7-4---4----4--7-4--------|
G|---5-5----5-----5-5----5-3-5--5-5----5-------|
D|---------------------------------------------|
A|---------------------------------------------|
E|---------------------------------------------|

e|---------------------------------------------|
B|---------------------------------------------|
G|-------------5!--------------------------5!---|
D|-------------5!--------------------------5!---|
A|-------------3!--------------------------3!---|
E|---------------------------------------------|

e|-----6----6---|
B|---4--4---4---|
G|---5----5-5---|  4X
D|--------------|
A|--------------|
E|--------------|

This is just part of the intro.
i'm still working on putting the the rest up, and the rest of the song as well.


| /  slide up
| \  slide down
| h  hammer-on
| p  pull-off
| ~  vibrato
| +  harmonic
| x  Mute note
| !  Exclamate notes
===============================================================================

            
            
Suggest correction
Creating personal tab
Creating personal tab
You can edit any tab online and save it as your Personal.

You can edit, replace or remove any tab part or add personal notes – all changes will be seen only by you.

Personal tabs can be accessed anytime from any device, even offline.
Learn more »
Give kudos to tab author, rate the tab!
1 2 3 4 5
comments
print report bad tab
4 comments total. Showing first comments.
0 reply
austinarcadium 40 Nov 08, 2008 11:19 AM

It is close, but it doesn't sound exact to the song.

A good start though.

0 reply
O Henry 142 Feb 02, 2009 07:51 PM

thank you. if you could figure any of the rest out that would help. i just havent even gotten around to even trying to figure it out. and the reason it doesnt sound exact is becuase isaac is playing it on a banjo. i dont know how it would be played on the banjo though.

0 reply
stale 259 Mar 17, 2009 05:05 AM

here you go, gents. i've converted the intro from my king rat banjo tab. the rest is on http://www.modmouse.com/forums/showthread.php?t=7970
also, i posted a full guitar tab last week

e-------------------|---------------------------------|
B-----11---------11-|----------------8------------11\-|
G--------12------12-|-----------8------10b-8------12\-|
D--10-------10---10-|--10\8--10---10----------10--10\-|
A-------------------|---------------------------------|
E-------------------|---------------------------------|
Four times, then - this

D-----------------------------------------------------|
B---------8----------------------------8-----------11-|
G----8------10b-8-------8b--------8------10b-8-----12-|
D-10---10---------10b-8----10--10---10----------10-10-|
G-------------------|---------------------------------|
E-----------------------------------------------------|

guest
You may want to rate the tab now too:
select rating
Wanna post a correction for this tab? Suggest correction