Oops, an error
Loading. Please wait.

Mice Eat Cheese tab

3,386 views 1 this week
4 commentsread comments
1 2 3 4 5
x 4
add to favorites
×
Save as Personal and add changes to this tab that will be seen only by you. Learn more ›
×
You can save this tab as Personal to edit and correct it or add notes. All changes will be seen only by you. Learn more »
launch autoscroll
font size
0
reset
how to read this tab
guitar tuner
edit
Autoscroll
slow
fast
+/-
esc
set tempo
stop
Author
Difficulty
Mice Eat Cheese by Modest Mouse
Tabbed by: Paul William Smith XII (mandated by Justin DeMuro)

There were no tabs for this [amazing song] and I thought it was extremely frustrating so 
asked my good friend Paul to tab them for me and he had it done in no time. Now 
can reap the benefits! Enjoy!


Intro and Verse:
e|--------------------------------|
B|--------------------------------|
G|--------------------------------| (x13)
D|-0---0---4---5------------------|
A|---0---0---5---5----------------|
E|-----------------3--------------|

Part 2:
e|--------------------------------|
B|--------------------------------|
G|--------------------------------| (x3)
D|----------(12)-----(12)---------|
A|-----(12)------(7)------(12)----|
E|-(7)----------------------------|

Part 3:
e|-(12)-(7)--(12)-(7)-------------|
B|-(12)-(7)--(12)-(7)-------------|
G|-(12)-(7)--(12)-(7)-------------| (listen to song for strumming pattern)
D|--------------------------------|
A|--------------------------------|
E|--------------------------------|


Lyrics:

What are you doing here?
I came to get a piece of factory-outlet beer then...
I go home
I don't feel like I wanna be by myself

Mice eat cheese
And for the most part, they do as they please, but...
Cat comes home
Mice don't feel very free to walk around
Walk around...


Note: "()" denotes harmonics

            
            
Suggest correction
Creating personal tab
Creating personal tab
You can edit any tab online and save it as your Personal.

You can edit, replace or remove any tab part or add personal notes – all changes will be seen only by you.

Personal tabs can be accessed anytime from any device, even offline.
Learn more »
comments
print report bad tab
4 comments total. Showing first comments.
0 reply
nrich 10 Mar 28, 2008 05:38 AM

the verse is wrong

0 reply
travisalan 10 Sep 11, 2014 02:20 PM

The intro/verse should be

|-----------------------|
|-----------------------|
|--------------0--------|
|-----4------4---4------|
|---5---5-5-------------|
|-5----------------3----|

+1 reply
gabapovich 10 Mar 18, 2016 04:04 PM

he goes back and forth between strumming and picking the harmonics at the end
it should look like this

e|-(12)---------------------------|
B|-----------(12)-----------------|
G|------(7)-------(7)-------------|
D|--------------------------------|
A|--------------------------------|
E|--------------------------------|

also, the verse should be
|-----------------------|
|-----------------------|
|--------------0--------|
|----------4------------|
|--5---5-----5---5------|
|----5---5---------3----|

the verse is harder to tab right since its so out of tune but i Think i got it

guest
You may want to rate the tab now too:
select rating
Wanna post a correction for this tab? Suggest correction