Oops, an error
Loading. Please wait.

Night On The Sun tab

version 3
version 3

Whole song

Interactive

11,623 views 9 this week
5 commentsread comments
1 2 3 4 5
x 11
add to favorites
×
Save as Personal and add changes to this tab that will be seen only by you. Learn more ›
×
You can save this tab as Personal to edit and correct it or add notes. All changes will be seen only by you. Learn more »
launch autoscroll
font size
0
reset
how to read this tab
guitar tuner
edit
Autoscroll
slow
fast
+/-
esc
set tempo
stop
Night on the Sun
by Modest Mouse, found on the Japanese Tour Ep
tab. by damonk [corrected by Saviano P. ((cheers damonk))]
tuning:  e g# e g# b e (low to high)
issac plays this song on his danelectro
intro:
the intro riff is pretty easy (not as easy as the verse) but it is a
little tricky at first.
e  ------------------------------||-------------------------------------|
b  ------------------------------||-------------------------------------|
g# ------------------------------||-------------------------------------|
e  ------------------------------||-------------------------------------|
g# --------2-0---5^6-53-2^3--0--||--5-7-8-7-5\3-3-3-0-------------------|
e  --0--4------------------------||--0-0-0--0\0-------------------------|
       repeat this three times       then play this
verse:
the verse is just two sets of harmonics been played in the whole notes.
e  ----12---------------------------7----------------------------------|
b  ----12---------------------------7----------------------------------|
g# ----12---------------------------7----------------------------------|
e  ----12---------------------------7----------------------------------|
g# ----12---------------------------7----------------------------------|
e  ----12---------------------------7----------------------------------|
       *harmonics                   *harmonics
make sure to hit all the notes in a quick downstroke, and not rake it,
to get it so sound right.
after like two repetitions of that, start strumming the harmonics to
the rhythm of the song.
solo:
a standard wicked ass issac solo.
e  -------------------||----------------------------------------|
b  -------------------||----------------------------------------|
g# --3-----3-3-5-(5)--||-----7-7-7-7-7^8-7-5-3-7-7-7-7-8-7------|
e  ----4-2------------||-----------------------------------9-7--|
g# -------------------||----------------------------------------|
e  -------------------||----------------------------------------|
     play this twice       then play this twice
e  -------------------||-----------------------------------------------|
b  -------------------||-----------------------------------------------|
g# ----5-7-8-7-5------||----/10--8-7-8-7-----/10-8-7-8-7-5-------------|
e  --7-----------7----||-----------------7----------------7------------|
g# -------------------||-----------------------------------------------|
e  -------------------||-----------------------------------------------|
     play this twice       then play this once
the last part:
issac is saying stuff like "if there's one thing i know about this town..."
and he plays stuff like this:
e  ------2-------------------------------------------------------------|
b  --------4-----------------------------------------------------------|
g# --0h3--------5-3-2-0-2----------------------------------------------|
e  --------------------------------------------------------------------|
g# --------------------------------------------------------------------|
e  --------------------------------------------------------------------|
he does do variations of this theme, but i think its unessecary to
tab these out.  if yer band covers this song, this part should be yours.
the end.
my tab. explained:
common symbols:
^ -- hammer on, pull off
~ -- vibrato
 -- slide down
/ -- slide up

            
            
Suggest correction
Creating personal tab
Creating personal tab
You can edit any tab online and save it as your Personal.

You can edit, replace or remove any tab part or add personal notes – all changes will be seen only by you.

Personal tabs can be accessed anytime from any device, even offline.
Learn more »
comments
print report bad tab
5 comments total. Showing first comments. show 1 bad comment
+1 reply
brycec33 106 Mar 12, 2008 10:01 PM

I poste someone elses correct version of the tab. If you have a problem with it maybe tune your guitar to the right tuning buddy... OR maybe learn how to play perhaps?

+1 reply
twolostsouls 10 Sep 28, 2008 09:15 AM

Clearly loopdeloop is a prick with the attention span of a fly. It's perfect if you actually use the correct tuning.

guest
You may want to rate the tab now too:
select rating
Wanna post a correction for this tab? Suggest correction