Oops, an error
Loading. Please wait.

Out Of Gas tab

version 2
version 2

Whole song

Interactive

6,258 views 24 this week
1 commentread comment
1 2 3 4 5
x 4
add to favorites
×
Save as Personal and add changes to this tab that will be seen only by you. Learn more ›
×
You can save this tab as Personal to edit and correct it or add notes. All changes will be seen only by you. Learn more »
launch autoscroll
font size
0
reset
how to read this tab
guitar tuner
edit
Autoscroll
slow
fast
+/-
esc
set tempo
stop
Author
[Intro]
e|--------------------------------------------------------------------------|
B|--------------------------------------------------------------------------|
G|--------------------------------------------------------------------------|
D|------7---------7-----------------------------7------7--------------------|
A|-8--8---8--7--7--7/5--5-7/-5--3--3-----3/-8-8--8-7-7--7/5-5-7/5--3--3---3-|
E|-------------------------------------5--------------------------------5---|

[Verse]
  outa gas outa road outa car don|t know how i|m gunna go an 
e|----------------------------------------|
B|----------------------------------------|
G|----------------------------------------|
D|------7---------7-----------------------|
A|-8--8---8--7--7--7/5--5-7/-5--3--3----3-|
E|-----------------------------------5----|

  had a drink the other day opinions were like kittens i was givin em away  
e|----------------------------------------|
B|----------------------------------------|
G|----------------------------------------|
D|------7---------7-----------------------|
A|-8--8---8--7--7--7/5--5-7/-5--3--3---3--|
E|-----------------------------------5----|

  had a drink tha other day had a lot to say and i said
e|----------------------------------------|
B|----------------------------------------|
G|----------------------------------------|
D|------7---------7-----------------------|
A|-8--8---8--7--7--7/5--5-7/-5--3--3---3--|
E|-----------------------------------5----|

[Chorus]
  you will come down soon too,   you will come down, soon too
e|---------------------------|  |----------------------------|
B|---------------------------|  |----------------------------|
G|---------------------------|  |----------------------------|
D|-7--7--7-------------------|  |--4--4--4--4----x-x---------|
A|-8--8--8-----7--7--7--7----|  |--5--5--5--5----x-x--2-2-x--|
E|-------------8--8--8--8----|  |---------------------3-3-x--|
 
  you will come down soon too,   you will come down, too soon
e|---------------------------|  |----------------------------|
B|---------------------------|  |----------------------------|
G|---------------------------|  |----------------------------|
D|-7--7--7-------------------|  |--4--4--4--4----x-x---------|
A|-8--8--8-----7--7--7--7----|  |--5--5--5--5----x-x--2-2-x--|
E|-------------8--8--8--8----|  |---------------------3-3-x--|

  you will come down soon too,   soon enough you will come down,come down
e|---------------------------|  |----------------------------|
B|---------------------------|  |----------------------------|
G|---------------------------|  |----------------------------|
D|-7--7--7-------------------|  |--4--4--4--4----x-x---------|
A|-8--8--8-----7--7--7--7----|  |--5--5--5--5----x-x--2-2-x--|
E|-------------8--8--8--8----|  |---------------------3-3-x--|

e|--------------------------------------------------------------------------|
B|--------------------------------------------------------------------------|
G|--------------------------------------------------------------------------|
D|------7---------7-----------------------------7------7--------------------|
A|-8--8---8--7--7--7/5--5-7/-5--3--3-----3/-8-8--8-7-7--7/5-5-7/5--3--3---3-|
E|-------------------------------------5--------------------------------5---|

[Verse]
  outa gas outa road outa car don|t know how i|m gunna go an 
e|----------------------------------------|
B|----------------------------------------|
G|----------------------------------------|
D|------7---------7-----------------------|
A|-8--8---8--7--7--7/5--5-7/-5--3--3----3-|
E|-----------------------------------5----|

  had a drink the other day opinions were like kittens i was givin em away  
e|----------------------------------------|
B|----------------------------------------|
G|----------------------------------------|
D|------7---------7-----------------------|
A|-8--8---8--7--7--7/5--5-7/-5--3--3---3--|
E|-----------------------------------5----|

  had a drink tha other day had a lot to say and i said
e|----------------------------------------|
B|----------------------------------------|
G|----------------------------------------|
D|------7---------7-----------------------|
A|-8--8---8--7--7--7/5--5-7/-5--3--3---3--|
E|-----------------------------------5----|

[Chorus]
  you will come down soon too,   you will come down, soon too
e|---------------------------|  |----------------------------|
B|---------------------------|  |----------------------------|
G|---------------------------|  |----------------------------|
D|-7--7--7-------------------|  |--4--4--4--4----x-x---------|
A|-8--8--8-----7--7--7--7----|  |--5--5--5--5----x-x--2-2-x--|
E|-------------8--8--8--8----|  |---------------------3-3-x--|
 
  you will come down soon too,   you will come down, too soon
e|---------------------------|  |----------------------------|
B|---------------------------|  |----------------------------|
G|---------------------------|  |----------------------------|
D|-7--7--7-------------------|  |--4--4--4--4----x-x---------|
A|-8--8--8-----7--7--7--7----|  |--5--5--5--5----x-x--2-2-x--|
E|-------------8--8--8--8----|  |---------------------3-3-x--|

  you will come down soon too,   soon enough you will come down,come down
e|---------------------------|  |----------------------------|
B|---------------------------|  |----------------------------|
G|---------------------------|  |----------------------------|
D|-7--7--7-------------------|  |--4--4--4--4----x-x---------|
A|-8--8--8-----7--7--7--7----|  |--5--5--5--5----x-x--2-2-x--|
E|-------------8--8--8--8----|  |---------------------3-3-x--|

  an the end
[Outro]
e|--------------------------------------------------------------------------|
B|--------------------------------------------------------------------------|
G|--------------------------------------------------------------------------|
D|------7---------7-----------------------------7------7--------------------|
A|-8--8---8--7--7--7/5--5-7/-5--3--3-----3/-8-8--8-7-7--7/5-5-7/5--3--3---3-|
E|-------------------------------------5--------------------------------5---|


************************************

| /  Slide up
| x  Dead note

************************************

            
            
Suggest correction
Creating personal tab
Creating personal tab
You can edit any tab online and save it as your Personal.

You can edit, replace or remove any tab part or add personal notes – all changes will be seen only by you.

Personal tabs can be accessed anytime from any device, even offline.
Learn more »
comments
print report bad tab
1 comment total.
+3 reply
weirdsprout 10 Jan 26, 2008 06:37 PM

Not bad, but there's no need to type up the same riff multiple times. A simple x3 or something would work just fine.

guest
You may want to rate the tab now too:
select rating
Wanna post a correction for this tab? Suggest correction