Oops, an error
Loading. Please wait.

Parting Of The Sensory tab

version 2
version 2

Whole song

22,756 views 6 this week
1 commentread comment
1 2 3 4 5
x 5
add to favorites
×
Save as Personal and add changes to this tab that will be seen only by you. Learn more ›
×
You can save this tab as Personal to edit and correct it or add notes. All changes will be seen only by you. Learn more »
launch autoscroll
font size
0
reset
how to read this tab
guitar tuner
edit
Autoscroll
slow
fast
+/-
esc
set tempo
stop
Author
Title: Parting of the Sensory
Artist: Modest Mouse
Album: We Were Dead Before the Ship Even Sank

tabbed by Steve "SPiV" Perreira IV


Guitar I - Johnny Marr
Guitar II - Eric Judy (maybe?)
Balalaika *arr. for Guitar* - Isaac Brock


--

Guitar I - Johnny Marr


chorus
e--------------|--------------|---------------|---------------|
B--------------|--------------|---------------|---------------|
G--------2-----|--5-----7-----|--7/9\7\5------|---------------|
D--0--------3--|-----7-----7--|----------7----|---------------|
A-----3--------|--------------|---------------|---------------|
E--------------|--------------|---------------|---------------|x3


verse "It came on us..."
e-----------|---------------|
B-----------|---------------|
G--2--------|--2------------|
D--2--------|--2------------|
A--0--------|--0------5--3--|
E---------x2|-------------x2|

e-----------|-----------|---------------|
B-----------|-----------|--1------------|
G--2--------|--4--------|--2------------|
D--2--------|--5--------|--3------------|
A--0--------|--5--------|--3------5--3--|
E-----------|--3--------|--1------------|

e-----------|-----------|------------|-----------|
B-----------|-----------|--1----1----|--1--------|
G--2--------|--4--------|--2----2----|--2--------|
D--2--------|--5--------|--3----3----|--3--------|
A--0--------|--5--------|--3----3----|--3--------|
E-----------|--3--------|--1----1----|--1--------|


pre-bridge/outro
e--------------------|-------------------|
B--------------------|--1----------------|
G--2--------4--------|--2----------------|
D--2--------5--------|--3----------------|
A--0--------5--------|--3----------------|
E-----------3--------|--1----------------|x4


--

Guitar II (Acoustic) - Eric Judy (maybe?)


verse
E--0-------0--0-0-|--3------3--3-3-|--1------1--1-1-|--1------1--1-1-|
B--1-------1--1-1-|--3------3--3-3-|--1------1--1-1-|--1------1--1-1-|
G--2-------2--2-2-|--4------4--4-4-|--2------2--2-2-|--2------2--2-2-|
D--2--2-2--2--2-2-|--5--5-5-5--5-5-|--3------3--3-3-|--3------3--3-3-|
A--0--0-0--0--0-0-|--5--5-5-5--5-5-|--3--3-3-3--3-3-|--3--3-3-3--3-3-|
E-----------------|--3--3-3-3--3-3-|--1--1-1-1--1-1-|--1--1-1-1--1-1-|


chorus
e-----0-0-0--0--|-----3-3-3--3--|-----1-1-1--1--|-----1-1-1--1--|
B-----1-1-1--1--|-----3-3-3--3--|-----1-1-1--1--|-----1-1-1--1--|
G-----2-2-2--2--|-----4-4-4--4--|-----2-2-2--2--|-----2-2-2--2--|
D--2--2-2-2--2--|-----5-5-5--5--|-----3-3-3--3--|-----3-3-3--3--|
A--0--0-0-0--0--|--5--5-5-5--5--|--3--3-3-3--3--|--3--3-3-3--3--|
E---------------|--3--3-3-3--3--|--1--1-1-1--1--|--1--1-1-1--1--|


--

Balalaika *arr. for guitar* - Isaac Brock


pre-bridge/outro (that cool little riff)
e------------------|-----------------|--------------|----------------|
B--5h6-5h6-5-------|---------------8-|--6---6-6---6-|--6---6-8-6-5---|
G------------5-4---|--4------4h5-7---|--------------|--------------7-|
D----------------7-|-------7---------|--------------|----------------|
A------------------|-----------------|--------------|----------------|
E------------------|-----------------|--------------|----------------|
*first variation*

e------------------|-----------------|--------------|----------------|
B--5h6---6-5-------|---------------8-|--6---6-6---6-|--6---6-8-6-5---|
G------------5-4---|--4------4h5-7---|--------------|--------------7-|
D----------------7-|-------7---------|--------------|----------------|
A------------------|-----------------|--------------|----------------|
E------------------|-----------------|--------------|----------------|
*second variation*

            
            
Suggest correction
Creating personal tab
Creating personal tab
You can edit any tab online and save it as your Personal.

You can edit, replace or remove any tab part or add personal notes – all changes will be seen only by you.

Personal tabs can be accessed anytime from any device, even offline.
Learn more »
comments
print report bad tab
1 comment total.
+1 reply
Nargenfargen 261 Jan 12, 2009 10:36 AM

pretty sure it goes:
|--------------------------|
|--------------------------|
|--5---7---5--7/9--7\5-----|
|----7------------------7--|
|--------------------------|
|--------------------------|

guest
You may want to rate the tab now too:
select rating
Wanna post a correction for this tab? Suggest correction