Oops, an error
Loading. Please wait.
We have an official Perfect Disguise tab made by UG professional guitarists. Check out the tab »
×
1,288 views 1 this week
1 commentread comment
1 2 3 4 5
2 more votes to show rating
add to favorites
×
Save as Personal and add changes to this tab that will be seen only by you. Learn more ›
×
You can save this tab as Personal to edit and correct it or add notes. All changes will be seen only by you. Learn more »
launch autoscroll
font size
0
reset
how to read this tab
guitar tuner
edit
Autoscroll
slow
fast
+/-
esc
set tempo
stop
Author
Difficulty
perfect disguise
tabbed by andy magliano email at mags_andy341@yahoo.com or pm me for corrections
requests or additions.
intro
e|--------------------------------------------------------|
B|--------------------------------------------------------|
G|--9-------9-------------9-------9-----------------------|
D|-----9h10---7--7/9--7~-----9p10---7-9/7-7~--------------|
A|--------------------------------------------------------|
E|--------------------------------------------------------|


e|--------------------------------------------------|
B|-----2-0--0-2-2--2-0--0-2-2-----------------------|
G|-------------0-----------0--2--4(2)2/4-2----------|
D|-9/-----------------------------------------------|
A|----2----2------2----2----------------------------|
E|--------------------------------------------------|



e|-----------------------------------------------------|
B|--2-0-0-2-2--2-0--0-2-2--------------------0---------|
G|---------0-----------0--2-------------------2~-------|
D|-----------------------------------------------------|
A|-2---2------2----2-----------------------------------|
E|-----------------------------------------------------|

verse
these  are the 2 chords the strumming patterns kinda weird but listen to the song and
youll get it its pretty simple.

e-2---|---0-
b-2---|---0-
g-4---|---2-
d-2---|---2-
a-3---|---0-
e-2---|---0-
listen to the song for the song  structer. you wont have much luck without knowing
waht the song sounds like.

            
            
Suggest correction
Creating personal tab
Creating personal tab
You can edit any tab online and save it as your Personal.

You can edit, replace or remove any tab part or add personal notes – all changes will be seen only by you.

Personal tabs can be accessed anytime from any device, even offline.
Learn more »
Give kudos to tab author, rate the tab!
1 2 3 4 5
comments
print report bad tab
1 comment total.
0 reply
the piper 1,413 Oct 17, 2006 06:39 PM

Wrrrraung

guest
You may want to rate the tab now too:
select rating
Wanna post a correction for this tab? Suggest correction