Oops, an error
Loading. Please wait.

Sleepwalking tab

version 3
version 3

Whole song

23,172 views 6 this week
7 commentsread comments
1 2 3 4 5
x 10
add to favorites
×
Save as Personal and add changes to this tab that will be seen only by you. Learn more ›
×
You can save this tab as Personal to edit and correct it or add notes. All changes will be seen only by you. Learn more »
launch autoscroll
font size
0
reset
how to read this tab
guitar tuner
edit
Autoscroll
slow
fast
+/-
esc
set tempo
stop

Modest Mouse - Sleepwalking
Album: Building Nothing Out Of Something


           INTRO

---8----3--1/---3--4---3--1--'
---8----5--3/---5--6---5--3--'
-----------------------------'
-----------------------------'
-----------------------------'
-----------------------------'

--------------------------------------------------------'
--------1-----------1-------------1---------------------'
------0---0-------2---2---------1---1----------0--------'
----2-------2---2-------2-----0-------0------0---0------' & play this
--3-----------0----------------------------2-------0----' 4 the whole
---------------------------1-------------3--------------' song.
I fell in love and
I needed a roadmap
To find out where you lived
So excited now
Sleepwalking, cause I'm sleepwalking
The white trash boys
Listen to the headphones
Blasting white noise
In the convenience store parking lot
I hung around there
Wasting my time
Hoping you'll stop by
Cause I'm sleepwalking, I'm sleepwalking
A mutual friend's parents
Left town for a week
So we raided their liquor stash
And walked down by the riverside
Sleepwalking, cause I'm sleepwalking

i havn't done the solo havn't figured it out yet but
maybe this will help.

-------------------------------------------------'
--2/3-3-3-5-3-2-2-2-3-2--------------------------'
------------------------4-4-4-6-4-2--------------'
-------------------------------------------------'
-------------------------------------------------'
-------------------------------------------------'

bobbytabasco@yahoo.com if you have any questions

            
            
Suggest correction
Creating personal tab
Creating personal tab
You can edit any tab online and save it as your Personal.

You can edit, replace or remove any tab part or add personal notes – all changes will be seen only by you.

Personal tabs can be accessed anytime from any device, even offline.
Learn more »
comments
print report bad tab
7 comments total. Showing first comments. show 2 bad comments
+4 reply
AntonsKey 10 Dec 02, 2008 08:33 PM

---------------------|
--------0------------|
----------0----------|
-----0------0--------| The last arpeggio sounds like that to me.
---2-----------------|
-3-------------------|

guest
Wanna post a correction for this tab? Suggest correction