Oops, an error
Loading. Please wait.

The Stars Are Projectors tab

1,066 views 1 this week
1 commentread comment
1 2 3 4 5
2 more votes to show rating
add to favorites
×
Save as Personal and add changes to this tab that will be seen only by you. Learn more ›
×
You can save this tab as Personal to edit and correct it or add notes. All changes will be seen only by you. Learn more »
launch autoscroll
font size
0
reset
how to read this tab
guitar tuner
edit
Autoscroll
slow
fast
+/-
esc
set tempo
stop
-------------------------------------------------------------------------------
                             The Stars Are Projectors - Modest Mouse
-------------------------------------------------------------------------------

Tuning: Standard

Intro: 
                     3x                                               4x
e|----------------------------------------------|---------------------------------|
B|----------------------------------------------|---------------------------------|
G|----------------------------------------------|---------------------------------|
D|----------------------------------------------|--9-11-12-7-9-----9-11-12-7-9-5--|
A|-----9-10p9h10p9p7--------9-10p9h10p9p7-------|--9-11-12-7-9-----9-11-12-7-9-5--|
E|---7---------------7----7---------------7-3-7-|--7-9--10-5-7-----7-9--10-5-7-3--|
                                                        
      
                    4x                                               3x
e|----------------------------------------------|---------------------------------|
B|----------------------------------------------|---------------------------------|
G|----------------------------------------------|---------------------------------|
D|----------------------------------------------|--9-11-12-7-9-----9-11-12-7-9-5--|
A|-----9-10p9h10p9p7--------9-10p9h10p9p7-------|--9-11-12-7-9-----9-11-12-7-9-5--|
E|---7--------------------7---------------7-3-7-|--7-9--10-5-7-----7-9--10-5-7-3--|


Rest of the song:

        1:37 "And the stars are projectors yeah"      
e|----------------------------------------|---------------------
B|----------------------------------------|--------------------
G|----------------------------------------|----------------------
D|--------10---9-----------10---9---9-----|--
A|----7h9----7---------10----10---10---10-|-
E|-10-------------------------------------|--

     2:11
e|----------------------|
B|----------------------|
G|----------------------|
D|-7-7-7-77--99-9-9-99--|
A|-7-7-7-77--99-9-9-99--|
E|-5-5-5-55--77-7-7-77--|

    
    2:34                                   3:01     
e|---------------------------------------|--------------------------|
B|---------------------------------------|--------------------------|
G|---------------------------------------|--------------------------|
D|---------10---9-----------10---9---9---|---------10---9-----------|
A|----7h9-----7------7-9-10----7---7---7-|--7-9-10----7---9-10-12---|
E|-10------------------------------------|--------------------------|
        
     3:05 build up 
e|------------------------------|
B|------------------------------|
G|------------------------------|
D|----------------------9-12-9--|
A|-5h7-10-7h10-12-10h12---------|
E|------------------------------|

e|---------------------------------------------------------|----------------------------|
B|---------------------------------------------------------|----------------------------|
G|--------------------------------------99-1212-1111-999---|----------------------------|
D|--9----------9----------9--------------------------------|-99-------------------------| 
A|----9-10-12----9-10-12----9-10-12------------------------|---99-1010-1212-99-1010-1212|
E|---------------------------------------------------------|----------------------------|
    
      3:59                                                                    occasionally this
e|--------------------------------------------------------------------|----------------------------|
B|--------------------------------------------------------------------|----------------------------|
G|-------------------------------------------------99-1212-1111-999---|----------------------------|
D|--99-------------99--------------99---------------------------------|-99-------------------------| 
A|----99-1010-1212----99-1010-1212----99-1010-1212--------------------|---99-1010-1212-99-1010-1212|
E|--------------------------------------------------------------------|----------------------------|


e|------------------------------------------------------------------------------------|
B|------------------------------------------------------------------------------------|
G|----------------------------------9-12-11-9-----------9-12-11-9---------------------|
D|--9----------9----------9-------------------9---------------------------------------| 
A|----9-10-12----9-10-12----9-10-12-------------9-10-12-------------------------------|
E|------------------------------------------------------------------------------------|


     5:50 guitar 
e|--------------------------------------------------------------------------------------------|
B|--------------------------------------------------------------------------------------------|
G|12-11-------12--------------------------------------12-----------------------12-------------|
D|-------9-10------10-9-10---9h10p9h10p9h10p9---9h10h---12--12p10p9h10p9h10h12----12p10p9-----|
A|--------------------------------------------------------------------------------------------|
E|--------------------------------------------------------------------------------------------|

violin part
e|---12-12------------------------------------------------------------------------------------|
B|---------12-12-13-13------------------------------------------------------------------------|
G|---------------------14-14-16-16---------------------------------------------21-21-21-21-21-|
D|---------------------------------17-17-19-19------------------------------------------------|
A|---------------------------------------------21-21--19-19-19-19-19-19-19-19-----------------|
E|--------------------------------------------------------------------------------------------|

                
Last Part 8:00 I'm pretty sure there are two different guitar parts here, but it's hard to tell.
just play around with these two chords and it sounds good

e|---------|
B|---12-12-|
G|---12-11-|
D|---12-12-|
A|---10-10-|
E|---------|
                                
 
************************************

| /   slide up
| \   slide down
| h   hammer-on
| p   pull-off
| ~   vibrato
| +   harmonic
| x   Mute note
| b   Bend
| pb  Pre-bend
| br  Bend release
| pbr Pre-bend release
| brb Bend release bend

************************************

            
            
Suggest correction
Creating personal tab
Creating personal tab
You can edit any tab online and save it as your Personal.

You can edit, replace or remove any tab part or add personal notes – all changes will be seen only by you.

Personal tabs can be accessed anytime from any device, even offline.
Learn more »
Give kudos to tab author, rate the tab!
1 2 3 4 5
comments
print report bad tab
1 comment total.
0 reply
iamcornholio666 87 Nov 21, 2014 07:35 AM, edited on November 29 2014, 03:43 pm

one thing- in another tab the power chord intro section is played with a fourth instead of a fifth, meaning the 799 would be played 779, and so on with the other power chords. i can't tell which sounds better. opinions?

guest
You may want to rate the tab now too:
select rating
Wanna post a correction for this tab? Suggest correction