Oops, an error
Loading. Please wait.

The Whale Song bass

version 2
version 2

Whole song

1,616 views 1 this week
no commentswrite comment
1 2 3 4 5
1 last vote to show rating
add to favorites
×
Save as Personal and add changes to this tab that will be seen only by you. Learn more ›
×
You can save this tab as Personal to edit and correct it or add notes. All changes will be seen only by you. Learn more »
launch autoscroll
font size
0
reset
guitar tuner
edit
Autoscroll
slow
fast
+/-
esc
set tempo
stop
The other bass tab has the main (intro) riff perfect, but is missing the
other parts. This is what I play (no idea if its right. The first part is
copied from Anthony Guidotti (the other tab). Thanks and credit to him.

============================================================

Pretty much this the whole song, but sometimes it varies
G|---------------------------------------|
D|--10\----6-6-3/5--6-6-3/5--3-3---3/5/10|
A|------3------------------------6-------|
E|---------------------------------------|

Variation 1
G|---------------------------------------|
D|10-10\---6-6-3/5--8-8-3/5--3-3---3/5/10|
A|------3------------------------6-------|
E|---------------------------------------|

Variation 2
G|---------------------------------------|
D|-------------3/5--6-6-3/5--3-3---3/5/10|
A|-3---3--6-6--------------------6-------|
E|---------------------------------------|

Variation 3
G|---------------------------------------|
D|-------------3/5--8-8-3/5--3-3---3/5/10|
A|-3---3--6-6--------------------6-------|
E|---------------------------------------|

Variation 4

=========================================================

For the middle part ("I guess I am a scout, So I should find a way
out..."), I just play the bass note of the guitar chords:
G|---------------------------------------|
D|----------------------------5----------|
A|-3-----------------6-------------------|
E|----------4----------------------------|

And for the last part, I'm pretty sure he plays variations on this:

G|---------------------------------------|---------------------------------------|
D|-10-8-10-12-10-10----8-6-5-6-8-6-5-6---|-8---8---6-5-3------5---5---3-5-1------|
A|---------------------------------------|---------------------------------------|
E|---------------------------------------|---------------------------------------|

Not sure if it is right, but it sounds okay. Hope that helps.

            
            
Suggest correction
Creating personal tab
Creating personal tab
You can edit any tab online and save it as your Personal.

You can edit, replace or remove any tab part or add personal notes – all changes will be seen only by you.

Personal tabs can be accessed anytime from any device, even offline.
Learn more »
Give kudos to tab author, rate the tab!
1 2 3 4 5
comments
print report bad tab
guest
Wanna post a correction for this tab? Suggest correction