Oops, an error
Loading. Please wait.

Trailer Trash tab

version 1
version 1

Whole song

Interactive

79,682 views 135 this week
9 commentsread comments
1 2 3 4 5
x 24
add to favorites
×
Save as Personal and add changes to this tab that will be seen only by you. Learn more ›
×
You can save this tab as Personal to edit and correct it or add notes. All changes will be seen only by you. Learn more »
launch autoscroll
font size
0
reset
how to read this tab
guitar tuner
edit
Autoscroll
slow
fast
+/-
esc
set tempo
stop
Author
Trailer Trash
tuning: standerd

[Intro]
e|-------------------------------------------------------------------------|
B|-------------------------------------0--0--------------------------------|
G|-------------------------------------x--x-------------5--5--5-5--5--5-5-5|
D|--9---9---9--9---9---9--9--9\4--4--4-4--4--4--4-4-4-x-5--5--5-5--5--5-5-5|
A|-10--10--10-10--10--10-10-10\5--5--5-5--5--5--5-5-5-x-3--3--3-3--3--3-3-3|
E|-------------------------------------------------------------------------|

e|---------------------------|
B|---0--0--0-0--0--0-0-0-0---|
G|5--x--x--x-x--x--x-x-x-x---|
D|5--2--2--2-2--2--2-2-2-2---|
A|3--3--3--3-3--3--3-3-3-3---|
E|---------------------------|

(1st Guitar)
e|-------------------------------------------------------------------------|
B|-------------------------------------------------------------------------|
G|----------------------------------------------------5--5--5-5--5--5-5-5-5|
D|--9---9---9--9---9---9--9--9\4--4--4-4--4--4-4-4-4--5--5--5-5--5--5-5-5-5|
A|-10--10--10-10--10--10-10-10\5--5--5-5--5--5-5-5-5--3--3--3-3--3--3-3-3-3|
E|-------------------------------------------------------------------------|

e|---------------------------|
B|-0--0--0-0--0--0-0-0-0-----|
G|-x--x--x-x--x--x-x-x-x-----|
D|-2--2--2-2--2--2-2-2-2-----|
A|-3--3--3-3--3--3-3-3-3-----|
E|---------------------------|

(2nd Guitar)
e|----15--------15--------15-----10--------10--------10-----8------8------|
B|-------12--------12---------------10--------10--------------8------8----|
G|-12-------12--------12-----11--------11--------11------9------9------9--|
D|------------------------------------------------------------------------|
A|------------------------------------------------------------------------|
E|------------------------------------------------------------------------|

e|---8-----8------8------8---|
B|-----------8------8--------|
G|------9------9------9------|
D|---------------------------|
A|---------------------------|
E|---------------------------|

(1st Guitar Chorus)
e|-------------------------------------------------------------------------|
B|-------------------------------------------------------------------------|
G|-------------------------------------------------------------------------|
D|--9--9--9--9--9--9--9--9-4-4-4-4-4-4-4-4-5-5-5-5-5-5-5-5-2-2-2-2-2-2-2-2-|
A|-10-10-10-10-10-10-10-10-5-5-5-5-5-5-5-5-3-3-3-3-3-3-3-3-3-3-3-3-3-3-3-3-|
E|-------------------------------------------------------------------------|
   P.M.....................................................................

(2nd Guitar Chorus)
e|-------------------------------------------------------------------------|
B|-------------------------------------------------------------------------|
G|-----------7+---------------------------5--4--5--4--5--4--5--4--5--4--5-4|
D|-7+-------------7+-------------------------------------------------------|
A|------7+-----------------------------------------------------------------|
E|-------------------------------------------------------------------------|

(1st Guitar Jam)
e|---------------------------------------------------------------------|
B|---------------------------------------------------------------------|
G|--------------------------------------5--------5--------5--------5---|
D|--9--------9--------4--------4--------5--------5--------5--------5---|
A|-10-------10--------5--------5--------3--------3--------3--------3---|
E|---------------------------------------------------------------------|
NOTE: Bend these chords with a whammy.

(2nd Guitar Jam)
e|-------------------------------------------------------------------------|
B|-------------------------------------------------------------------------|
G|-7-5\4-5p4----7-5\4-5p4----7-5\4-5p4---5p4---5p4----7-5\4-5p4---7-5\4-5p4|
D|-----------5------------5------------5-----5-----5------------5----------|
A|-------------------------------------------------------------------------|
E|-------------------------------------------------------------------------|

e|-------------------------------------------------------------------------|
B|-------------------------------------------------------------------------|
G|---7-5\4-5p4-5p4-5p4-5p4-5p4-5p4--7-5\4-5p4----7-5\4-5p4----7-5\4-5p4----|
D|5-------------------------------------------5------------5------------5--|
A|-------------------------------------------------------------------------|
E|-------------------------------------------------------------------------|

e|---------------------------------------------------------------------|
B|---------------------------------------------------------------------|
G|-7-5\4-5p4----7-5\4-5p4----7-5\4-5p4----7-5\4-5p4-5p4-5p4-5p4-5p4----|
D|-----------5------------5------------5----------------------------5--|
A|---------------------------------------------------------------------|
E|---------------------------------------------------------------------|

(1st Guitar Outro(pt.1))
e|-----------------------------------------------------------------------|
B|-----------------------------------------------------------------------|
G|--------------------------------------5-----5-----5--------------------|
D|--9--------9--------4--------4--------5-----5-----5--------------------|
A|-10-------10--------5--------5--------3-----3-----3--------------------|
E|-----------------------------------------------------------------------|
NOTE: Bend like the normal outro up until C5. Then Just play normally.

(2nd Guitar Outro(pt.2))
e|-----------------------------------------------------------------------|
B|-----------------------------------------------------------------------|
G|-----------------------------------------5+----5+b---5+b---------------|
D|-----------------------------------------------------------------------|
A|-----------------------------------------------------------------------|
E|-----------------------------------------------------------------------|
(Guitar parts above alligned to match song. Listen to song to learn how to bend harmonics.)


************************************

| x  Dead note
| p  Pull-off
| \  Slide down
| +b bend

************************************

            
            
Suggest correction
Creating personal tab
Creating personal tab
You can edit any tab online and save it as your Personal.

You can edit, replace or remove any tab part or add personal notes – all changes will be seen only by you.

Personal tabs can be accessed anytime from any device, even offline.
Learn more »
comments
print report bad tab
9 comments total. Showing first comments.
+3 reply
benjidude945 123 Mar 31, 2008 04:31 PM

**** yes!!
one of my favorite modest mouse songs and you do it some damn-good justice with this spot-on tab
solo included!
thanks a bunch man

+1 reply
austincollier 10 Jun 22, 2008 06:20 PM

well done

0 reply
ItsBudtheSpud 10 Jan 28, 2009 09:20 PM

Hey it sounds a little better if you add a third note to the shape you're using. For example, on the first position (A-10, D-9) add a third note so it looks like A-10, D-9, G-12. You can also add that note into the next position so it looks like A-5, D-4, G-7. And also to the last one @ A-3, D-2, G-5. Hope you find this useful. Great song, great band.

guest
You may want to rate the tab now too:
select rating
Wanna post a correction for this tab? Suggest correction