Oops, an error
Loading. Please wait.

Truckers Atlas tab

15,152 views 30 this week
3 commentsread comments
1 2 3 4 5
x 9
add to favorites
×
Save as Personal and add changes to this tab that will be seen only by you. Learn more ›
×
You can save this tab as Personal to edit and correct it or add notes. All changes will be seen only by you. Learn more »
launch autoscroll
font size
0
reset
how to read this tab
guitar tuner
edit
Autoscroll
slow
fast
+/-
esc
set tempo
stop
Author
Difficulty
Verse

e---------|----------------------------------------------------|
B---------|------------------------------------4---------------|
G---------|-----------4----------------------------------------|
D---------|----------------------------------------------------|
A---------|--------------------------4--4-----------4/7--------|
E----12\0—|---4--4------4-0-0-0--------------------------------|

(1st time only)

Pre-Chorus

listen to teh struming patterns in teh song ya can figure it out pretty easy
e|---------------|
B|---------------|
G|--9----6----4--|
D|--x----x----x--|
A|--7----4----2--|
E|---------------|

Chorus
e----2-------------2---------------0-----0-------0--------0-------|
B------4------4------4------4--------4------4-------x---------4---|
G---------4--------------4----------------------------------------|
D-----------------------------------------------------------------|
A-----------------------------------------------------------------|
E-----------------------------------------------------------------|

2nd chorus
e--2p0-------2p0-------2p0------2p0-------2p0----------------------------|
B--------4-------------------4---------------------4-------2---4--2------|
G------------------4------------------4-----------------4-------------4--|
D------------------------------------------------------------------------|
A------------------------------------------------------------------------|
E------------------------------------------------------------------------|


outro
e---------------------------------------------------|
b---------------------------------------------------|
g---------------------------------------------------|
d---------------------------------------------------|
a-----------------------0p2^2^----------------------|
e--0-0-0h2p0h2p0------------------------------------|

            
            
Suggest correction
Creating personal tab
Creating personal tab
You can edit any tab online and save it as your Personal.

You can edit, replace or remove any tab part or add personal notes – all changes will be seen only by you.

Personal tabs can be accessed anytime from any device, even offline.
Learn more »
comments
print report bad tab
3 comments total.
0 reply
the piper 1,413 Nov 04, 2006 02:26 PM

ummmmmm. no

0 reply
Joshua1207 211 Mar 30, 2009 12:08 AM

Not bad... for the chorus... could use some improvements defiantly.

+1 reply
ClaytonOT 20 Dec 20, 2013 07:10 AM

what I hear in the begining intro is;

e---------|-----------------------------------------------------|
B---------|------------------------------------4-x--------------|
G---------|------------------------------------------4----------|
D---------|-----------------------------------------------------|
A---------|--------------------------4--4-----------------------|
E----12\0?|---4--4-4--4-0-0-0-----------------------------------|

Some variation of that.

guest
You may want to rate the tab now too:
select rating
Wanna post a correction for this tab? Suggest correction