Oops, an error
Loading. Please wait.

What People Are Made Of bass

version 1
version 1

Whole song

Interactive

148 views 1 this week
no commentswrite comment
1 2 3 4 5
2 more votes to show rating
add to favorites
×
Save as Personal and add changes to this tab that will be seen only by you. Learn more ›
×
You can save this tab as Personal to edit and correct it or add notes. All changes will be seen only by you. Learn more »
launch autoscroll
font size
0
reset
guitar tuner
edit
Autoscroll
slow
fast
+/-
esc
set tempo
stop
Author
Difficulty
-------------------------------------------------------------------------------
                    WHAT PEOPLE ARE MADE OF - Modest Mouse
-------------------------------------------------------------------------------
Tabbed by: Mamurra
Album: The Moon and Antarctica (2000)

Tuning: E A D G

Below I tabbed the parts of the song, which are not that numerous. The order of
the parts and the times of repetition for each are listed at the end of the tab.

Intro

G|-----------------|-----------------|
D|-----------------|-----------------|
A|-----------------|-------------4/7-|
E|-7-7-7-7-7-7-7-7-|-3-3-3-3-3-3-----|

Verse
   
    . . . . . . . .   . . . . . .
G|------------------|-----------------|
D|------------------|-----------------|
A|-----/5-5----/5-5-|-------------4/7-|
E|-/7-7----/7-7-----|-3-3-3-3-3-3-----|

Bridge (heavily distorted)

G|-----------------|-----------------|
D|-----------------|-----------------|
A|-------------5-7-|-------------4/7-|
E|-7-7-7-7-7-7-----|-3-3-3-3-3-3-----|

The interlude is the same as the intro.

Intro 2x
Verse 4x
Interlude 2x
Verse 4x
Interlude 2x
Bridge 6x
Verse 2x

| .  staccato
| /  slide up
| \  slide down
| h  hammer-on
| p  pull-off
| ~  vibrato
| +  harmonic
| x  Mute note
===============================================================================

            
            
Suggest correction
Creating personal tab
Creating personal tab
You can edit any tab online and save it as your Personal.

You can edit, replace or remove any tab part or add personal notes – all changes will be seen only by you.

Personal tabs can be accessed anytime from any device, even offline.
Learn more »
Give kudos to tab author, rate the tab!
1 2 3 4 5
comments
print report bad tab
guest
You may want to rate the tab now too:
select rating
Wanna post a correction for this tab? Suggest correction