Oops, an error
Loading. Please wait.

World At Large tab

version 5
version 5

Interactive

41,061 views 54 this week
5 commentsread comments
1 2 3 4 5
x 25
add to favorites
×
Save as Personal and add changes to this tab that will be seen only by you. Learn more ›
×
You can save this tab as Personal to edit and correct it or add notes. All changes will be seen only by you. Learn more »
launch autoscroll
font size
0
reset
how to read this tab
guitar tuner
edit
Autoscroll
slow
fast
+/-
esc
set tempo
stop
Author
Difficulty
Tabbers playing skills
intermediate ++
Song: World at Large
Band: Modest Mouse
Album: Good News For People Who Love Bad News

Gtr. 1:

plays intro and the rest of the song

when two or more strings are played at the same time obviously don't let them ring for 
than the length of an eighth note

e|------------------------------------|--------------------------------|
B|------------------------------------|--------------------------------|
G|11--11--11--11--11--11--11--11/13---|10--10--10--10--10--10--10--10--|
D|11----------------------------------|11--------------------------11--|
A|9-----------------------------------|--------------------------------|
E|------------------------------------|--------------------------------|

e|------------------------------------|--------------------------------|
B|------------------------------------|--------------------------------|
G|8---------------------------8/10----|6---------------------------6---|
D|9---9---9---9---9---9---9---9/11----|8---8---8---8---8---8---8---8---|
A|------------------------------------|--------------------------------|
E|------------------------------------|--------------------------------|


Gtr. 2:

comes in after intro and also plays on and on and on and on......

I think it's got a chorus effect and maybe a bit of reverb

e|--------6---------------6-------|--------6---------------6-------|
B|----7-------7-------7-------7---|----6-------6-------6-------6---|
G|6---------------6---------------|6---------------6---------------|
D|--------------------------------|--------------------------------|
A|--------------------------------|--------------------------------|
E|--------------------------------|--------------------------------|

e|--------6---------------6-------|----------------6---------------|
B|----7-------7-------7-------7---|--------6-----------6-------6---|
G|8---------------8---------------|----6-------6-----------6-------|
D|--------------------------------|8-------------------------------|
A|--------------------------------|--------------------------------|
E|--------------------------------|--------------------------------|



************************************

| /  Slide up

************************************

            
            
Suggest correction
Creating personal tab
Creating personal tab
You can edit any tab online and save it as your Personal.

You can edit, replace or remove any tab part or add personal notes – all changes will be seen only by you.

Personal tabs can be accessed anytime from any device, even offline.
Learn more »
comments
print report bad tab
5 comments total. Showing first comments. show 1 bad comment
+1 reply
libertines4ever 658 Sep 14, 2011 10:25 AM

it's just the start and the end of the measure nothing you should play on guitar

0 reply
libertines4ever 658 Sep 14, 2011 10:28 AM

if I understood your question correctly...

guest
You may want to rate the tab now too:
select rating
Wanna post a correction for this tab? Suggest correction