Oops, an error
Loading. Please wait.

Pictures At An Exhibition 2 Promenade The Old Castle tab

4,167 views 21 this week
no commentswrite comment
1 2 3 4 5
2 more votes to show rating
add to favorites
×
Save as Personal and add changes to this tab that will be seen only by you. Learn more ›
×
You can save this tab as Personal to edit and correct it or add notes. All changes will be seen only by you. Learn more »
launch autoscroll
font size
0
reset
how to read this tab
guitar tuner
edit
Autoscroll
slow
fast
+/-
esc
set tempo
stop
Author
PICTURES AT AN EXHIBITION - 2. PROMNADE THE OLD CASTLE
Modest Mussorgsky
 
|-----------------------------------|-0---5--7---10-------15---|
|--------------0-----0--------------|-8---7--8---10-------15---|
|-------0----7-----7----0-----------|-5---7--7---11-------16---|
|----0-----7-----7---------7-----0--|-----7--5-------<12>------|
|-7---------------------------7-----|-7---5-----<12>------14---|
|-----------------------------------|--------------------------|
 
|--14-------10--<12>---17---<19>--10<22>---|
|--15-------12--<12>---17----17---<7>------|
|--14-------11--<12>---17---------<7>------|
|------<12>--9---------------17----0-------|
|-<12>-----------10---<12>-----------------|
|----------------------------14------------|
 
|-----------------|----------------------|
|-----------------|-----------0----------|
|-----------------|--------7-------0-----|
|-0--------0------|---4----------7-------|
|----7-------7----|-7---5------------5---|
|-------9------7--|----------------------|

|-2--0--3--5----8---12----14-----7------5---2---|
|-3--1--3--7---10---10-----------7---8--5---3---|
|-2--0--4--7----9---------14-----7---7--5---2---|
|-0--2--------------10---<12>--<12>--9--7-5-0---|
|-------2--5-7--0----7-9------------------------|
|------------------------<12>-------------------|
 
|------------------------------------|
|--3-------------------------<12>----|
|--5----------<12>----0------<12>----|
|------<12>---<12>-------<5>---------|
|-<7>--<12>----------<5>-------------|
|--------------------<4>-------------|
 
|--------------------------------------||
|----------<12>--------------3---------||
|------<7>-------<12>--------5---------||
|--<7>-----------<12>--<7>-------<12>--||
|--<7>-----------------<7>--<7>--<12>--||
|-<12>------<9>---------5--------------||
 
|--0-------3---5-10-7---|--5--10-7---3----5-----0---------||
|--1---3---3---7----8---|--5-----7---0----5-----2----3----||
|--0---2---4---7----7---|--5-----7--<5>---6-----2----2----||
|------4--<5>-----------|-<9>------------<3>---------4----||
|-<5>-------------------|---------------------------------||
|-----------------------|-----------<5>-------------------||
  
tuning;D#G#D#G#C F

|---------|----------------|---------------------|
|---------|----------------|---------------------|
|---------|----------------|---------------------|
|-0-------|----------------|---------------------|
|-0-------|-------0--------|--0---------0--------|
|---------|---12-12--12-12-|-12--13-12-15--13-12-|
 
|---------------------|------------------|
|---------------------|------------------|
|---------------------|------------------|
|---------------------|------------------|
|--0---------0--------|-0----------------|
|-10--12-10-13--12-10-|-8---10-12--10-8--|

|----------------|----------------------|------------|
|----------------|----------------------|-8----------|
|----------------|-------------------7--|------------|
|----------------|----------------------|-0----------|
|-0--------------|-0----------0------0--|-0---0-0--0-|
|-7--8-7-10--8-7-|-8------5---5---------|------------|
  
|------------------------|-----------------|
|----11-10--8h10p8----8--|-8-------6-------|
|------------------8-----|-----7-----------|
|------------------------|-0---------------|
|--0-----0--8------------|-0---0---0----0--|
|-----------5---------5--|-----------------|
 
|--------------------------|----------------------|
|--------------------------|----------------------|
|-------8---7---7h8-7---5--|-7--0-----------------|
|---0----------------------|-0--------------------|
|---0-------0----8---------|-0------0---0------0--|
|----------------5------5--|----------------------|
  
|------------------------|---------------|----------------------|
|-----------1h3p1--------|---------------|----------------------|
|-----2--3----0---3---2--|-3------0------|-0----------------<12>|
|--1---------------------|-0--1-0-3--1-0-|----------------------|
|--0-----0----0-------0--|-0----0-0------|-0--------------------|
|------------------------|---------------|-10--12-10-13--12--10-|
 
|---------------------|-------------------------|
|---------------------|-------------------------|
|--<7>----------------|-------------------------|
|---0-----------------|-------------------------|
|---0-----------------|----0--------------------|
|---8--10--12--10--8--|----7---8-7---10--8--7---|
  
|--------------------|------------|---------------------------|
|--8<20>-------------|-8----------|----11--10--8h10p8------8--|
|------------------7-|------------|--------------------8------|
|--------------------|-0----------|---------------------------|
|--0---------------0-|-0---0-0--0-|--0------0--8--------------|
|--8-----5---5-------|------------|------------5-----------5--|
 
|-----------------|----------4--6--8--|-1--------3-4---|
|-8----3--4-------|----6--8--4--------|-1--------------|
|---------3-------|----------5--------|-1--------------|
|-0-------5-------|-------------------|-0--------------|
|-0----0--0----0--|--0----0--0-----0--|-0---0--0---0---|
|-----------------|-------------------|----------------|
  
|-3--------3--------|----------------------|
|------3---------6--|----------------------|
|-------------------|-8---------7---5---3--|
|-5-----------------|-5---------0----------|
|-4--------0-----0--|-5---------0-------0--|
|-5----5------------|-5-----5--------------|
  
|--------------------|-----------------|----------------|
|--------------------|-----------------|----------------|
|-2---3--2--5--3--2--|-3----0--0-------|----------------|
|-1---------0--------|-5---------------|----------------|
|-0------0--0-----0--|-7------------0--|-0----0--0----0-|
|--------------------|-5----5--5-------|----------------|
  
|-11---11---13---11-10--|-11---11---13---11-10--|
|-13--------13----------|-13--------13----------|
|-13--------13----------|-13--------13----------|
|-10-------<12>---------|-10-------<12>---------|
|--0----0----0------0---|--0----0----0------0---|
|-----------------------|-----------------------|

|-11------9-----|-16-----------15-13--|-11-----15-----|
|-13------9-----|-14------------------|-13-----16-----|
|-13-----10-----|-13------------------|-12------------|
|-10-----11-----|-15------------------|-13-----10-----|
|--0---0--0---0-|--0-----0---0-----0--|--0---0--0---0-|
|---------------|---------------------|---------------|
  
|-13-----11-----|-10----------8-----6--|
|-15-----13-----|-10-------------------|
|-12-----12-----|-11-------------------|
|-12-----13-----|--0-------------------|
|--0---0--0---0-|--0------0---0-----0--|
|---------------|----------------------|
  
|-5--6--5---8---6---5--|-6-----------------|
|-7--------------------|-8--------8--------|
|-7--------------------|-7-----------------|
|-0--------------------|-0-----------------|
|-0-----0---0-------0--|-0-----0--0-----0--|
|----------------------|-------------------|

|-11---11---13---11-10--|-11---11---13---11-10--|
|-13--------13----------|-13--------13----------|
|-13--------13----------|-13--------13----------|
|-10-------<12>---------|-10-------<12>---------|
|--0----0----0------0---|--0----0----0------0---|
|-----------------------|-----------------------|

 
|-11------9-----|-16--------15-16-13--|
|-13------9-----|-14------------------|
|-13-----10-----|-13------------------|
|-10-----11-----|-15------------------|
|--0---0--0---0-|--0-----0---0-----0--|
|---------------|---------------------|
  
|-11-----15-----|-13--15-10--11--10--11--|
|-13-----16-----|-15---------13----------|
|-12------------|-12---------12----------|
|-13-----10-----|-12---------13----------|
|--0---0--0---0-|--0------0---0-------0--|
|---------------|------------------------|
  
|-10-----------8------6--|-5---6--5---8---6---5---|
|-10---------------------|-7----------------------|
|-11---------------------|-7----------------------|
|--0---------------------|-0----------4-----------|
|--0------0----0------0--|-0------0---0-------0---|
|------------------------|------------------------|
    
|-6----------3----------|-------------------------|----------------------|
|-8---------------------|--------------8----------|----------------------|
|-7---------------------|-------------------------|-<7>------------------|
|-0---1--0---3---1---0--|-------------------------|--0-------------------|
|-0---------------------|-5---7---5----8---7---5--|--0-------------------|
|-----------------------|-5-----------------------|--8----10--12--10--8--|
  
|----------------------|--------------------|
|----------------------|--8<20>----------3--|
|----------------------|--------------------|
|--0-------------------|--------------------|
|--0-------------------|--0--------0-----0--|
|--7----8--7--10--8--7-|--8----5------------|
    
|-3----------|------6--5--3h5p3------3--|
|------------|-------------------4------|
|------------|--------------------------|
|-0----------|------------1-------------|
|-0---0-0--0-|--0------0--0----------0--|
|------------|--------------------------|
 
|-3/---10----------|-------------|-4-----------3--4--|
|----------8-------|-------------|-6-----------------|
|----------0-------|-------------|-7-----------------|
|-0----------------|-------------|-9-----------------|
|-0-----0--0----0--|--0---0-0--0-|-0----0---0-----0--|
|------------------|-------------|-------------------|
  
|-5----12----------|-7--------6-7--|
|-5-------10-------|-6-------------|
|-6----------------|-7-------------|
|-7----------------|-6-------------|
|-0-----0--0----0--|-0---0--0---0--|
|------------------|---------------|
  
|-8/---15-----------|---9----------|----------------|
|-5--------13-------|--10----------|----------------|
|-0-----------------|--10----------|----------------|
|-------------------|--12----------|----------------|
|-0-----0---0----0--|---0---0-0--0-|----0----0-0--0-|
|-------------------|--------------|----------------|
  
|-10-------9--8--9-|-10-------9--8--9--|
|--8-------8-------|--8-------8--------|
|--9-------8-------|--9-------8--------|
|------------------|-------------------|
|--0----0--0-----0-|--0----0--0-----0--|
|------------------|-------------------|
  
|-10-------9--------|--8-----15-----|-13-----11-----|
|--8----------------|--8-----16-----|-15-----13-----|
|--9----------------|--8------------|-12-----12-----|
|-------------------|--------10-----|-12------------|
|--0----0--0-----0--|--0---0--0---0-|--0---0--0---0-|
|-------------------|---------------|---------------|
  
|-10--------8----6--|-5---6--5---8---6---5--|
|-10----------------|-7---------------------|
|-11----------------|-7---------------------|
|--0----------------|-0----------4----------|
|--0-----0--0----0--|-0------0---0-------0--|
|-------------------|-----------------------|
    
|-6---------------|---------------|-------------|
|-8-------8-------|---------------|-8-----------|
|-7---------------|-------------7-|-------------|
|-0---------------|---------------|-0-----------|
|-0----0--0----0--|--0---0--0---0-|-0---0-0--0--|
|-----------------|---------------|-------------|

|-------------------------|----10---------------|
|----11-10--8h10p8-----8--|-8------8---8--------|
|-------------------8-----|-7-------------------|
|-------------------------|-8-------------------|
|--0-----0---8------------|-0------0---0-----0--|
|------------5---------5--|---------------------|
  
|-------------|-4-----------3--4--|-5---12-------------|
|-------------|-6-----------------|-5------10-10-------|
|-------------|-7-----------------|-6------------------|
|-------------|-9-----------------|-7----------7-------|
|--0---0-0--0-|-0-----0--0-----0--|-0-------0--0----0--|
|-------------|-------------------|--------------------|
   
|-7------------6--7--|-8---15--------------|
|-6------------------|-5------13--13-------|
|-7------------------|-0-------------------|
|-6------------------|---------------------|
|-0-----0---0-----0--|-0-------0---0----0--|
|--------------------|---------------------|
 
|---9----------|----------------|-10--------9--8---9---|
|--10----------|----------------|--8--------8----------|
|--10----------|----------------|--9--------8----------|
|--12----------|----------------|----------------------|
|---0---0-0--0-|----0----0-0--0-|--0-----0--0------0---|
|--------------|----------------|----------------------|
    
|-10-------9--8---9--|-10--------9-------|--8-----15-----|
|--8-------8---------|--8----------------|--8-----16-----|
|--9-------8---------|--9----------------|--8------------|
|--------------------|-------------------|--------10-----|
|--0----0--0------0--|--0----0---0----0--|--0---0--0---0-|
|--------------------|-------------------|---------------|
  
|-13------11--15--11--|-10-------8-10--8--|
|-15------13----------|-10----------------|
|-12------12----------|-11----------------|
|-12------------------|--0----------------|
|--0----0--0-------0--|--0----0--0-----0--|
|---------------------|-------------------|
 
|-5---6-5--8---6---5--|------------|
|-7-------------------|------------|
|-7-------------------|------------|
|-0--------4----------|------------|
|-0-----0--0-------0--|-0---0-0--0-|
|---------------------|------------|

|-11---11---13---11-10--|-11---11---13---11-10--|------------|
|-13--------13----------|-13--------13----------|------------|
|-13--------13----------|-13--------13----------|------------|
|-10-------<12>---------|-10-------<12>---------|------------|
|--0----0----0------0---|--0----0----0------0---|-0---0-0--0-|
|-----------------------|-----------------------|------------|

|--8-----15-----|-13-----11-----|------------|
|--8-----16-----|-15-----13-----|------------|
|--8------------|-12-----12-----|------------|
|--------10-----|-12------------|------------|
|--0---0--0---0-|--0---0--0---0-|-0---0-0--0-|
|---------------|---------------|------------|

|-5---6--5---8---6---5---|------------|-------------|
|-7----------------------|------------|-8-----------|
|-7----------------------|----------7-|-------------|
|-0----------4-----------|------------|-0-----------|
|-0------0---0-------0---|-0---0-0--0-|-0---0-0--0--|
|------------------------|------------|-------------|
    
|------------------------|------------------|
|----11-10--8h10p8----8--|-8--------6-------|
|-------------------8----|-------7----------|
|------------------------|-8--------7----6--|
|--0-----0---8-----------|-0-----0--0----0--|
|------------5--------5--|------------------|
  
|----------------------|---------------------|-------------|
|-----4--3--3h4--3-----|-3-------------------|-------------|
|--0----------------5--|----0----------------|-------------|
|-----4----------------|---------------------|-------------|
|--0--------4-------5--|-0----0---0-----0----|-0---0-0---0-|
|----------------------|---------------------|-------------|
 
|-----------|-----------|-----------|
|-4----3----|-----------|-2----1----|
|-5----5----|-----------|-1----0----|
|-7----4----|-----------|-3----2----|
|-0--0-0--0-|-0--0-0--0-|-0--0-0--0-|
|-----------|-----------|-----------|
  
|--------------10-|-15----------------|-------------*|
|-----------------|-11----------------|-------------*|
|-2---------------|--0----------------|-------------*|
|-4---------------|--0----------------|-------------*|
|-0---0--0--------|--0----0---------0-|-----0-------*|
|-----------------|-------------------|-------------*|
 

            
            
Suggest correction
Creating personal tab
Creating personal tab
You can edit any tab online and save it as your Personal.

You can edit, replace or remove any tab part or add personal notes – all changes will be seen only by you.

Personal tabs can be accessed anytime from any device, even offline.
Learn more »
Give kudos to tab author, rate the tab!
1 2 3 4 5
comments
print report bad tab
guest
You may want to rate the tab now too:
select rating
Wanna post a correction for this tab? Suggest correction