Oops, an error
Loading. Please wait.

Summer bass

version 1
version 1

Whole song

Interactive

by Mogwai
2,846 views 1 this week
no commentswrite comment
1 2 3 4 5
1 last vote to show rating
add to favorites
×
Save as Personal and add changes to this tab that will be seen only by you. Learn more ›
×
You can save this tab as Personal to edit and correct it or add notes. All changes will be seen only by you. Learn more »
launch autoscroll
font size
0
reset
guitar tuner
edit
Autoscroll
slow
fast
+/-
esc
set tempo
stop
Author
Difficulty
Alright, this is my first tab so it will most likely be totally inaccurate.


Main Riff/Intro/Chorus
G--------0------------0---------------------------------------|
D----4-----4------4-----4---7-7-7-7-7-7-7-7-7-7-7-7-7-7-7-7---|
A--2---2-----2--2---2-----2/5-5-5-5-5-5-5-5-5-5-5-5-5-5-5-5/2-|
E-------------------------------------------------------------|
                            I_______________________________I
                             Fill-ins for this part:

G----------------   G-----4---------  G-------7/11-11-11-11-|(This is eleventh
D---7-5-4--------   D---7---7-------  D-7-7-7-7-------------| fret, not 2 ones)
A-5--------------   A-5-------------  A-5-5-5-5-------------|
E----------------   E---------------  E---------------------|


Verse Riff (I'm not so sure if this is right)
G------------------------------------------------------------------|
D---4---4---4---4---5---5---5---5---4---4---4---4---4--4---4---4---|
A-5---5---5---5---5---5---5---5---2---2---2---2---2--2---2---2-----|
E------------------------------------------------------------------|

Outro Riff                      x4 then and return to beginning of riff
G---------------------------------:-----------------:----------------|
D---6---6---6---6---4---4---4---4-:---6---6---9---9-:-6--------------|
A-7---7---7---7---7---7---7---7---:-7---7---7---7---:-7--------------|
E---------------------------------:-----------------:----------------|
                                                      Song ends on this chord

            
            
Suggest correction
Creating personal tab
Creating personal tab
You can edit any tab online and save it as your Personal.

You can edit, replace or remove any tab part or add personal notes – all changes will be seen only by you.

Personal tabs can be accessed anytime from any device, even offline.
Learn more »
Give kudos to tab author, rate the tab!
1 2 3 4 5
comments
print report bad tab
guest
You may want to rate the tab now too:
select rating
Wanna post a correction for this tab? Suggest correction