Oops, an error
Loading. Please wait.

Yes I Am A Long Way From Home bass

version 2
version 2

Whole song

by Mogwai
3,182 views 3 this week
no commentswrite comment
1 2 3 4 5
x 3
add to favorites
×
Save as Personal and add changes to this tab that will be seen only by you. Learn more ›
×
You can save this tab as Personal to edit and correct it or add notes. All changes will be seen only by you. Learn more »
launch autoscroll
font size
0
reset
guitar tuner
edit
Autoscroll
slow
fast
+/-
esc
set tempo
stop
Difficulty
intermediate
The other bass tabs for this song are horribly incorrect so I'm going to put the correct 
tab up for you all. Enjoy.
~George D. Algarin

Main Riff

G|-----------7--6-----------------------7--6--------------7--6---------------|
D|------7----------7------7--------7----------7--------7---------------------|
A|----0----0-----------0-------0-------------------0-------------------------|
E|---------------------------------------------------------------------------|


G|--9--6------7--6--7--6-----------------------------------------------------|
D|---------------------------------------------------------------------------|
A|---------------------------------------------------------------------------|
E|---------------------------------------------------------------------------|
       Play this x3 and then heavier part below

G|------------6--4--6---66---44/----22-----6--4--6----66--44/---22-----------|
D|-----7---------------------------------------------------------------------|
A|---------4-----------------------------4-----------------------------------|
E|---------------------------------------------------------------------------|

Main Riff
Heavier Part
Main Riff
Then play this....


G|---------------------11------------------7---------------7-----7-----------|
D|--------------11-------------------7----------------7----------------------|
A|----7/---9--------9------9/-----5-----5------5----5----5----5------5-------|
E|---------------------------------------------------------------------------|


Harmonics Part

G|-----6--7--6---------------------------------------------------------------|
D|---7----------7------------------------------------------------------------|
A|---------------------------------------------------------------------------|
E|---------------------------------------------------------------------------|
   Play this until guitars stop

Then come back in with.....

G|---------------7-----------------------------------------------------------|
D|---------7-----------7----7------------------------------------------------|
A|1/7h--0-----0-----0----0-----0--0------------------------------------------|
E|---------------------------------------------------------------------------|

And then alternate between the Main Riff and Heavier Part over the solo and end on open A

            
            
Suggest correction
Creating personal tab
Creating personal tab
You can edit any tab online and save it as your Personal.

You can edit, replace or remove any tab part or add personal notes – all changes will be seen only by you.

Personal tabs can be accessed anytime from any device, even offline.
Learn more »
Give kudos to tab author, rate the tab!
1 2 3 4 5
comments
print report bad tab
guest
Wanna post a correction for this tab? Suggest correction