Oops, an error
Loading. Please wait.

Poltetun Maan Taktiikkaa tab

version 1
version 1

Whole song

Interactive

by Mokoma
1,077 views 3 this week
no commentswrite comment
1 2 3 4 5
3 more votes to show rating
add to favorites
×
Save as Personal and add changes to this tab that will be seen only by you. Learn more ›
×
You can save this tab as Personal to edit and correct it or add notes. All changes will be seen only by you. Learn more »
launch autoscroll
font size
0
reset
how to read this tab
guitar tuner
edit
Autoscroll
slow
fast
+/-
esc
set tempo
stop
#----------------------------------PLEASE NOTE---------------------------------#
#This file is the author's own work and represents their interpretation of the #
#song. You may only use this file for private study, scholarship, or research. #
#------------------------------------------------------------------------------#

POLTETUN MAAN TAKTIIKKAA
As recorded by Mokoma

Transcribed by zesar_1337
        



Gtr I (D A D G B E) - 'Kuisma'
Gtr II (D A D G B E) - 'Tuomo'

  Q=205
 4/4
  Gtrs I, II
  Q  H.
|----------|
|----------|
|----------|
|-0--------|
|-0--------|
|-0--------|


    Gtrs I, II
    PM|   PM|   PM|     PM  PM  PM     PM|   PM|   PM|
    E E E E E E E E   E E E E E E Q    E E E E E E E E   E E E E E E Q
||------------------|----------------|-----------------|------------------||
||o-----------------|----------------|-----------------|-----------------o||
||------------------|----------------|-----------------|------------------||
||------------------|----------------|-----------------|------------------||
||o-----5-----6-----|-5-------3------|-----5-----6-----|-6-8-6-5-6-5-----o||
||--0-0---0-0---0-0-|---0-6-0---0-6--|-0-0---0-0---0-0-|-------------6----||


  Gtrs I, II
  PM|   PM|   PM|     PM  PM  PM     PM|   PM|   PM|
  E E E E E E E E   E E E E E E Q    E E E E E E E E   E E E E E E Q
|-----------------|----------------|-----------------|----------------|
|-----------------|----------------|-----------------|----------------|
|-----------------|----------------|-----------------|----------------|
|-----------------|-----3----------|-----------------|----------------|
|-----6-----5-----|-6-------6---5--|-----6-----5-----|-5-6-5-3-5-3----|
|-3-3---3-3---3-3-|---3---3---3----|-3-3---3-3---3-3-|-------------6--|


  Gtrs I, II
  PM|   PM|   PM|     PM  PM  PM     PM|   PM|   PM|
  E E E E E E E E   E E E E E E Q    E E E E E E E E   E E H.
|-----------------|----------------|-----------------|-----------|
|-----------------|----------------|-----------------|-----------|
|-----------------|----------------|-----------------|-----------|
|-----------------|----------------|-----------------|-7-7-------|
|-----5-----6-----|-5-------3------|-----5-----6-----|-5-5-------|
|-0-0---0-0---0-0-|---0-6-0---0-6--|-0-0---0-0---0-0-|-----------|


    Gtrs I, II
    PM|   PM|   PM|     PM  PM  PM     PM|   PM|   PM|
    E E E E E E E E   E E E E E E Q    E E E E E E E E   E E E E E E Q
||------------------|----------------|-----------------|------------------||
||o-----------------|----------------|-----------------|-----------------o||
||------------------|----------------|-----------------|------------------||
||------------------|----------------|-----------------|------------------||
||o-----5-----6-----|-5-------3------|-----5-----6-----|-6-8-6-5-6-5-----o||
||--0-0---0-0---0-0-|---0-6-0---0-6--|-0-0---0-0---0-0-|-------------6----||


  Gtrs I, II
  PM|   PM|   PM|     PM  PM  PM     PM|   PM|   PM|
  E E E E E E E E   E E E E E E Q    E E E E E E E E   E E E E E E Q
|-----------------|----------------|-----------------|----------------|
|-----------------|----------------|-----------------|----------------|
|-----------------|----------------|-----------------|----------------|
|-----------------|-----3----------|-----------------|----------------|
|-----6-----5-----|-6-------6---5--|-----6-----5-----|-5-6-5-3-5-3----|
|-3-3---3-3---3-3-|---3---3---3----|-3-3---3-3---3-3-|-------------6--|


  Gtr I
  PM|   PM|   PM|     PM  PM  PM     PM|   PM|   PM|
  E E E E E E E E   E E E E E E Q    E E E E E E E E   E  H..
|-----------------|----------------|-----------------|-----------|
|-----------------|----------------|-----------------|-----------|
|-----------------|----------------|-----------------|-----------|
|-----------------|----------------|-----5-----6-----|-5-[5]-----|
|-----5-----6-----|-5-------3------|-----------------|-----------|
|-0-0---0-0---0-0-|---0-6-0---0-6--|-0-0---0-0---0-0-|-----------|
|
| Gtr II
| PM|   PM|   PM|     PM  PM  PM     PM|   PM|   PM|
| E E E E E E E E   E E E E E E Q    E E E E E E E E   E  H..
|-----------------|----------------|-----------------|-----------|
|-----------------|----------------|-----------------|-----------|
|-----------------|----------------|-----------------|-----------|
|-----------------|----------------|-----------------|-----------|
|-----5-----6-----|-5-------3------|-----5-----6-----|-5-[5]-----|
|-0-0---0-0---0-0-|---0-6-0---0-6--|-0-0---0-0---0-0-|-----------|


    Gtrs I, II
    PM|     PM|       PM|     PM|       PM|         PM|           PM|
    E E E E E E E E   E E E E E E E E   E E E E E E E E   E E E E E E Q    3x
||------------------|-----------------|-----------------|------------------||
||o-----------------|-----------------|-----------------|-----------------o||
||------------------|-----------------|-----------------|------------------||
||------------------|-----------------|-----------------|------------------||
||o-----3s5-----3s5-|-----3s5-----3s5-|-----6s5-6s5-----|-6s5-6s5-----3---o||
||--0-0-3s5-0-0-3s5-|-0-0-3s5-0-0-3s5-|-0-0-6s5-6s5-0-0-|-6s5-6s5-0-0-3----||


  Gtrs I, II
  PM|     PM|       PM|     PM|
  E E E E E E E E   E E E E E E E E   Q.   Q.   Q    +W
|-----------------|-----------------|--------------|--------|
|-----------------|-----------------|--------------|--------|
|-----------------|-----------------|--------------|--------|
|-----------------|-----------------|--------------|--------|
|-----3s5-----3s5-|-----3s5-----3s5-|-6----3----5--|-(5)----|
|-0-0-3s5-0-0-3s5-|-0-0-3s5-0-0-3s5-|-6----3----5--|-(5)----|


 4/4
  Gtrs I, II
  Q  H.
|----------|
|----------|
|----------|
|-0--------|
|-0--------|
|-0--------|


    Gtrs I, II
    PM|   PM|   PM|     PM  PM  PM     PM|   PM|   PM|
    E E E E E E E E   E E E E E E Q    E E E E E E E E   E E E E E E Q
||------------------|----------------|-----------------|------------------||
||o-----------------|----------------|-----------------|-----------------o||
||------------------|----------------|-----------------|------------------||
||------------------|----------------|-----------------|------------------||
||o-----5-----6-----|-5-------3------|-----5-----6-----|-6-8-6-5-6-5-----o||
||--0-0---0-0---0-0-|---0-6-0---0-6--|-0-0---0-0---0-0-|-------------6----||


  Gtrs I, II
  PM|   PM|   PM|     PM  PM  PM     PM|   PM|   PM|
  E E E E E E E E   E E E E E E Q    E E E E E E E E   E E E E E E Q
|-----------------|----------------|-----------------|----------------|
|-----------------|----------------|-----------------|----------------|
|-----------------|----------------|-----------------|----------------|
|-----------------|-----3----------|-----------------|----------------|
|-----6-----5-----|-6-------6---5--|-----6-----5-----|-5-6-5-3-5-3----|
|-3-3---3-3---3-3-|---3---3---3----|-3-3---3-3---3-3-|-------------6--|


  Gtr I
  PM|   PM|   PM|     PM  PM  PM     PM|   PM|   PM|
  E E E E E E E E   E E E E E E Q    E E E E E E E E   E  H..
|-----------------|----------------|-----------------|-----------|
|-----------------|----------------|-----------------|-----------|
|-----------------|----------------|-----------------|-----------|
|-----------------|----------------|-----5-----6-----|-5-[5]-----|
|-----5-----6-----|-5-------3------|-----------------|-----------|
|-0-0---0-0---0-0-|---0-6-0---0-6--|-0-0---0-0---0-0-|-----------|
|
| Gtr II
| PM|   PM|   PM|     PM  PM  PM     PM|   PM|   PM|
| E E E E E E E E   E E E E E E Q    E E E E E E E E   E  H..
|-----------------|----------------|-----------------|-----------|
|-----------------|----------------|-----------------|-----------|
|-----------------|----------------|-----------------|-----------|
|-----------------|----------------|-----------------|-----------|
|-----5-----6-----|-5-------3------|-----5-----6-----|-5-[5]-----|
|-0-0---0-0---0-0-|---0-6-0---0-6--|-0-0---0-0---0-0-|-----------|


    Gtrs I, II
    PM|     PM|       PM|     PM|       PM|         PM|           PM|
    E E E E E E E E   E E E E E E E E   E E E E E E E E   E E E E E E Q    4x
||------------------|-----------------|-----------------|------------------||
||o-----------------|-----------------|-----------------|-----------------o||
||------------------|-----------------|-----------------|------------------||
||------------------|-----------------|-----------------|------------------||
||o-----3s5-----3s5-|-----3s5-----3s5-|-----6s5-6s5-----|-6s5-6s5-----3---o||
||--0-0-3s5-0-0-3s5-|-0-0-3s5-0-0-3s5-|-0-0-6s5-6s5-0-0-|-6s5-6s5-0-0-3----||


  Gtrs I, II
  PM|         PM|           PM|      PM|         PM|           PM|
  E E E E E E E E   E E E E E E Q    E E E E E E E E   E E E E E E Q
|-----------------|----------------|-----------------|----------------|
|-----------------|----------------|-----------------|----------------|
|-----------------|----------------|-----------------|----------------|
|-----------------|----------------|-----------------|----------------|
|-----6s5-6s5-----|-6s5-6s5-----3--|-----6s5-6s5-----|-6s5-6s5-----3--|
|-0-0-6s5-6s5-0-0-|-6s5-6s5-0-0-3--|-0-0-6s5-6s5-0-0-|-6s5-6s5-0-0-3--|


                                                       Q=120
  Gtrs I, II
  PM|         PM|           PM|      PM|         PM--------------|
                                                       |-3-| |-3-|
  E E E E E E E E   E E E E E E Q    E E E E E E E E   Q Q Q Q Q Q
|-----------------|----------------|-----------------|-------------|
|-----------------|----------------|-----------------|-------------|
|-----------------|----------------|-----------------|-------------|
|-----------------|----------------|-----------------|-------------|
|-----6s5-6s5-----|-6s5-6s5-----3--|-----6s5-6s5-----|-6-5-3-5-3-1-|
|-0-0-6s5-6s5-0-0-|-6s5-6s5-0-0-3--|-0-0-6s5-6s5-0-0-|-6-5-3-5-3-1-|


    Gtr I
    PM--------|       PM--------|       PM--------|       PM--------|
    E E E E E E  Q    E E E E E E  Q    E E E E E E  Q    E E E E E E  Q
||------------------|-----------------|-----------------|-------------------||
||o-----------------|-----------------|-----------------|------------------o||
||--------------/8--|-------------/8--|-------------/8--|-------------/8----||
||------------------|-----------------|-----------------|-------------------||
||o-0-0-0-0-0-0-/6--|-0-0-0-0-0-0-/6--|-0-0-0-0-0-0-/6--|-0-0-0-0-0-0-/6---o||
||--0-0-0-0-0-0-----|-0-0-0-0-0-0-----|-0-0-0-0-0-0-----|-0-0-0-0-0-0-------||
|
|   Gtr II
|   PM--------|       PM--------|       PM--------|       PM--------|
|   E E E E E E  Q    E E E E E E  Q    E E E E E E  Q    E E E E E E  Q
||------------------|-----------------|-----------------|-------------------||
||o-----------------|-----------------|-----------------|------------------o||
||--------------/5--|-------------/5--|-------------/5--|-------------/5----||
||------------------|-----------------|-----------------|-------------------||
||o-0-0-0-0-0-0-/3--|-0-0-0-0-0-0-/3--|-0-0-0-0-0-0-/3--|-0-0-0-0-0-0-/3---o||
||--0-0-0-0-0-0-----|-0-0-0-0-0-0-----|-0-0-0-0-0-0-----|-0-0-0-0-0-0-------||


  Gtr I
  S S S S S S S S S S S S S S S S   S S S S S S S S S S S S S S S S
|---------------------------------|---------------------------------|
|---------------------------------|---------------------------------|
|-7-7-7-7-7-7-7-7-7-7-7-7s8-8-8-8s|=4-4-4-4-4-4-4-4-4-4-4-4-4-4-4-4s|
|---------------------------------|---------------------------------|
|-5-5-5-5-5-5-5-5-5-5-5-5s6-6-6-6s|=2-2-2-2-2-2-2-2-2-2-2-2-2-2-2-2s|
|---------------------------------|---------------------------------|
|
| Gtr II
| S S S S S S S S S S S S S S S S   S S S S S S S S S S S S S S S S
|---------------------------------|---------------------------------|
|---------------------------------|---------------------------------|
|-7-7-7-7-7-7-7-7-7-7-7-7-7-7-7-7-|-7-7-7-7-7-7-7-7-7-7-7-7-7-7-7-7-|
|---------------------------------|---------------------------------|
|-5-5-5-5-5-5-5-5-5-5-5-5-5-5-5-5-|-5-5-5-5-5-5-5-5-5-5-5-5-5-5-5-5-|
|---------------------------------|---------------------------------|


  S S S S S S S S S S S S S S S S    S  S  S  S  S  S  S  S  S  S  S  S  S  S  S  S
|---------------------------------|-----------------------------------------------------|
|---------------------------------|-----------------------------------------------------|
|-7-7-7-7-7-7-7-7-7-7-7-7s8-8-8-8s|=10-10-10-10-10-10-10-10-10-10-10-10s11-11-11-11s====|
|---------------------------------|-----------------------------------------------------|
|-5-5-5-5-5-5-5-5-5-5-5-5s6-6-6-6s|==8--8--8--8--8--8--8--8--8--8--8--8s=9--9--9--9s====|
|---------------------------------|-----------------------------------------------------|
|
| S S S S S S S S S S S S S S S S    S  S  S  S  S  S  S  S  S  S  S  S  S  S  S  S
|---------------------------------|-----------------------------------------------------|
|---------------------------------|-----------------------------------------------------|
|-7-7-7-7-7-7-7-7-7-7-7-7-7-7-7-7-|--7--7--7--7--7--7--7--7--7--7--7--7--7--7--7--7-----|
|---------------------------------|-----------------------------------------------------|
|-5-5-5-5-5-5-5-5-5-5-5-5-5-5-5-5-|--5--5--5--5--5--5--5--5--5--5--5--5--5--5--5--5-----|
|---------------------------------|-----------------------------------------------------|


  Gtr I
  S S S S S S S S S S S S S S S S    S  S  S  S  S  S  S  S  S  S  S  S S S S S
|---------------------------------|---------------------------------------------|
|---------------------------------|---------------------------------------------|
|-7-7-7-7-7-7-7-7-7-7-7-7s8-8-8-8s|=10-10-10-10-10-10-10-10-10-10-10-10s7-7-7-7s|
|---------------------------------|---------------------------------------------|
|-5-5-5-5-5-5-5-5-5-5-5-5s6-6-6-6s|==8--8--8--8--8--8--8--8--8--8--8--8s5-5-5-5s|
|---------------------------------|---------------------------------------------|
|
| Gtr II
| S S S S S S S S S S S S S S S S    S  S  S  S  S  S  S  S  S  S  S  S S S S S
|---------------------------------|---------------------------------------------|
|---------------------------------|---------------------------------------------|
|-7-7-7-7-7-7-7-7-7-7-7-7-7-7-7-7-|--7--7--7--7--7--7--7--7--7--7--7--7-7-7-7-7-|
|---------------------------------|---------------------------------------------|
|-5-5-5-5-5-5-5-5-5-5-5-5-5-5-5-5-|--5--5--5--5--5--5--5--5--5--5--5--5-5-5-5-5-|
|---------------------------------|---------------------------------------------|


   S  S  S  S  S  S  S  S  S  S  S  S S S S S    S  S  S  S  S  S  S  S  S  S  S  S  S  S  S  S
|---------------------------------------------|----------------------------------------------------|
|---------------------------------------------|----------------------------------------------------|
|-13-13-13-13-13-13-13-13-13-13-13-13s7-7-7-7s|=16-16-16-16-16-16-16-16-16-16-16-16-16-16-16-16----|
|---------------------------------------------|----------------------------------------------------|
|-11-11-11-11-11-11-11-11-11-11-11-11s5-5-5-5s|=14-14-14-14-14-14-14-14-14-14-14-14-14-14-14-14----|
|---------------------------------------------|----------------------------------------------------|
|
|  S  S  S  S  S  S  S  S  S  S  S  S S S S S    S  S  S  S  S  S  S  S  S  S  S  S  S  S  S  S
|---------------------------------------------|----------------------------------------------------|
|---------------------------------------------|----------------------------------------------------|
|--7--7--7--7--7--7--7--7--7--7--7--7-7-7-7-7-|--7--7--7--7--7--7--7--7--7--7--7--7--7--7--7--7----|
|---------------------------------------------|----------------------------------------------------|
|--5--5--5--5--5--5--5--5--5--5--5--5-5-5-5-5-|--5--5--5--5--5--5--5--5--5--5--5--5--5--5--5--5----|
|---------------------------------------------|----------------------------------------------------|


    Gtr I
    PM--------|       PM--------|       PM--------|       PM--------|
    E E E E E E  Q    E E E E E E  Q    E E E E E E  Q    E E E E E E  Q
||------------------|-----------------|-----------------|-------------------||
||o-----------------|-----------------|-----------------|------------------o||
||--------------/8--|-------------/8--|-------------/8--|-------------/8----||
||------------------|-----------------|-----------------|-------------------||
||o-0-0-0-0-0-0-/6--|-0-0-0-0-0-0-/6--|-0-0-0-0-0-0-/6--|-0-0-0-0-0-0-/6---o||
||--0-0-0-0-0-0-----|-0-0-0-0-0-0-----|-0-0-0-0-0-0-----|-0-0-0-0-0-0-------||
|
|   Gtr II
|   PM--------|       PM--------|       PM--------|       PM--------|
|   E E E E E E  Q    E E E E E E  Q    E E E E E E  Q    E E E E E E  Q
||------------------|-----------------|-----------------|-------------------||
||o-----------------|-----------------|-----------------|------------------o||
||--------------/5--|-------------/5--|-------------/5--|-------------/5----||
||------------------|-----------------|-----------------|-------------------||
||o-0-0-0-0-0-0-/3--|-0-0-0-0-0-0-/3--|-0-0-0-0-0-0-/3--|-0-0-0-0-0-0-/3---o||
||--0-0-0-0-0-0-----|-0-0-0-0-0-0-----|-0-0-0-0-0-0-----|-0-0-0-0-0-0-------||


  Q=205
  Gtrs I, II
  PM|   PM|   PM|     PM  PM  PM     PM|   PM|   PM|
  E E E E E E E E   E E E E E E Q    E E E E E E E E   E E E E E E Q
|-----------------|----------------|-----------------|----------------|
|-----------------|----------------|-----------------|----------------|
|-----------------|----------------|-----------------|----------------|
|-----------------|----------------|-----------------|----------------|
|-----5-----6-----|-5-------3------|-----5-----6-----|-6-8-6-5-6-5----|
|-0-0---0-0---0-0-|---0-6-0---0-6--|-0-0---0-0---0-0-|-------------6--|


  Gtr I
  PM|   PM|   PM|     PM  PM  PM     PM|   PM|   PM|
  E E E E E E E E   E E E E E E Q    E E E E E E E E   E  H..
|-----------------|----------------|-----------------|-----------|
|-----------------|----------------|-----------------|-----------|
|-----------------|----------------|-----------------|-----------|
|-----------------|----------------|-----5-----6-----|-5-[5]-----|
|-----5-----6-----|-5-------3------|-----------------|-----------|
|-0-0---0-0---0-0-|---0-6-0---0-6--|-0-0---0-0---0-0-|-----------|
|
| Gtr II
| PM|   PM|   PM|     PM  PM  PM     PM|   PM|   PM|
| E E E E E E E E   E E E E E E Q    E E E E E E E E   E  H..
|-----------------|----------------|-----------------|-----------|
|-----------------|----------------|-----------------|-----------|
|-----------------|----------------|-----------------|-----------|
|-----------------|----------------|-----------------|-----------|
|-----5-----6-----|-5-------3------|-----5-----6-----|-5-[5]-----|
|-0-0---0-0---0-0-|---0-6-0---0-6--|-0-0---0-0---0-0-|-----------|


    Gtrs I, II
    PM|     PM|       PM|     PM|       PM|         PM|           PM|
    E E E E E E E E   E E E E E E E E   E E E E E E E E   E E E E E E Q    4x
||------------------|-----------------|-----------------|------------------||
||o-----------------|-----------------|-----------------|-----------------o||
||------------------|-----------------|-----------------|------------------||
||------------------|-----------------|-----------------|------------------||
||o-----3s5-----3s5-|-----3s5-----3s5-|-----6s5-6s5-----|-6s5-6s5-----3---o||
||--0-0-3s5-0-0-3s5-|-0-0-3s5-0-0-3s5-|-0-0-6s5-6s5-0-0-|-6s5-6s5-0-0-3----||


  Gtrs I, II
  PM|         PM|           PM|      PM|         PM|           PM|
  E E E E E E E E   E E E E E E Q    E E E E E E E E   E E E E E E Q
|-----------------|----------------|-----------------|----------------|
|-----------------|----------------|-----------------|----------------|
|-----------------|----------------|-----------------|----------------|
|-----------------|----------------|-----------------|----------------|
|-----6s5-6s5-----|-6s5-6s5-----3--|-----6s5-6s5-----|-6s5-6s5-----3--|
|-0-0-6s5-6s5-0-0-|-6s5-6s5-0-0-3--|-0-0-6s5-6s5-0-0-|-6s5-6s5-0-0-3--|


  Gtrs I, II
  PM|         PM|           PM|      PM|         PM--------------|
                                                       |-3-| |-3-|
  E E E E E E E E   E E E E E E Q    E E E E E E E E   Q Q Q Q Q Q
|-----------------|----------------|-----------------|-------------|
|-----------------|----------------|-----------------|-------------|
|-----------------|----------------|-----------------|-------------|
|-----------------|----------------|-----------------|-------------|
|-----6s5-6s5-----|-6s5-6s5-----3--|-----6s5-6s5-----|-6-5-3-5-3-1-|
|-0-0-6s5-6s5-0-0-|-6s5-6s5-0-0-3--|-0-0-6s5-6s5-0-0-|-6-5-3-5-3-1-|


  Q=205
  Gtrs I, II
  PM|   PM|   PM|     PM  PM  PM     PM|   PM|   PM|
  E E E E E E E E   E E E E E E Q    E E E E E E E E   E E H.
|-----------------|----------------|-----------------|-----------*|
|-----------------|----------------|-----------------|-----------*|
|-----------------|----------------|-----------------|-----------*|
|-----------------|----------------|-----------------|-7-7-------*|
|-----5-----6-----|-5-------3------|-----5-----6-----|-5-5-------*|
|-0-0---0-0---0-0-|---0-6-0---0-6--|-0-0---0-0---0-0-|-----------*|



Duration Legend
---------------
W - whole; H - half; Q - quarter; E - 8th; S - 16th; T - 32nd; X - 64th; a - acciaccatura
+ - note tied to previous; . - note dotted; .. - note double dotted
Uncapitalized letters represent notes that are staccato (1/2 duration)
Irregular groupings are notated above the duration line
Duration letters will always appear directly above the note/fret number it represents the
duration for.  Duration letters with no fret number below them represent rests.  Multi-
bar rests are notated in the form Wxn, where n is the number of bars to rest for.  Low
melody durations appear below the staff

Tablature Legend
----------------
 h   - hammer-on
 p   - pull-off
 b   - bend
 pb  - pre-bend
 r   - bend release (if no number after the r, then release immediately)
 /\  - slide into or out of (from/to "nowhere")
 s   - legato slide
 S   - shift slide
 - natural harmonic
[n]  - artificial harmonic
n(n) - tapped harmonic
 ~   - vibrato
 tr  - trill
 T   - tap
 TP  - trem. picking
 PM  - palm muting
\n/  - tremolo bar dip; n = amount to dip
 \n  - tremolo bar down
 n/  - tremolo bar up
/n\  - tremolo bar inverted dip
 =   - hold bend; also acts as connecting device for hammers/pulls
 <> - volume swell (louder/softer)
 x   - on rhythm slash represents muted slash
 o   - on rhythm slash represents single note slash

Misc Legend
-----------
 |  - bar
||  - double bar
||o - repeat start
o|| - repeat end
*|  - double bar (ending)
 :  - bar (freetime)
 $  - Segno
 &  - Coda
Tempo markers -  = BPM(8/16=s8/s16), where s8 = swing 8ths, s16 = swing 16ths


            
            
Suggest correction
Creating personal tab
Creating personal tab
You can edit any tab online and save it as your Personal.

You can edit, replace or remove any tab part or add personal notes – all changes will be seen only by you.

Personal tabs can be accessed anytime from any device, even offline.
Learn more »
Give kudos to tab author, rate the tab!
1 2 3 4 5
comments
print report bad tab
guest
You may want to rate the tab now too:
select rating
Wanna post a correction for this tab? Suggest correction