Oops, an error
Loading. Please wait.

Taman Maailman Ruhtinaan Hovi tab

version 1
version 1

Whole song

Interactive

by Mokoma
727 views 1 this week
no commentswrite comment
1 2 3 4 5
3 more votes to show rating
add to favorites
×
Save as Personal and add changes to this tab that will be seen only by you. Learn more ›
×
You can save this tab as Personal to edit and correct it or add notes. All changes will be seen only by you. Learn more »
launch autoscroll
font size
0
reset
how to read this tab
guitar tuner
edit
Autoscroll
slow
fast
+/-
esc
set tempo
stop
#----------------------------------PLEASE NOTE---------------------------------#
#This file is the author's own work and represents their interpretation of the #
#song. You may only use this file for private study, scholarship, or research. #
#------------------------------------------------------------------------------#

TÄMÄN MAAILMAN RUHTINAAN HOVI
As recorded by Mokoma

Transcribed by zesar_1337
        



Gtr I (D A D G B E) - 'Kuisma'
Gtr II (D A D G B E) - 'Tuomo'
Gtr III (D A D G B E) - 'Melodia'

    Q=180
   3/4
    Gtrs I, II
          PM--|         PM--|         PM--|         PM--|
    E E E E E E   E E E E E E   E E E E E E   E E E E E E
||--------------|-------------|-------------|-------------|
||o-------------|-------------|-------------|-------------|
||--------------|-------------|-------------|-------------|
||--5-5-5-5-5-5-|-4-4-4-4-4-4-|-5-5-5-5-5-5-|-1-1-1-1-1-1-|
||o-5-5-5-5-5-5-|-5-5-5-5-5-5-|-5-5-5-5-5-5-|-1-1-1-1-1-1-|
||--5-5-5-5-5-5-|-4-4-4-4-4-4-|-5-5-5-5-5-5-|-1-1-1-1-1-1-|


  Gtrs I, II
        PM--|         PM--|         PM--|         PM--|
  E E E E E E   E E E E E E   E E E E E E   E E E E E E
|-------------|-------------|-------------|---------------||
|-------------|-------------|-------------|--------------o||
|-------------|-------------|-------------|---------------||
|-5-5-5-5-5-5-|-4-4-4-4-4-4-|-3-3-3-3-3-3-|-5-5-5-5-5-5---||
|-5-5-5-5-5-5-|-5-5-5-5-5-5-|-1-1-1-1-1-1-|-3-3-3-3-3-3--o||
|-5-5-5-5-5-5-|-4-4-4-4-4-4-|-3-3-3-3-3-3-|-5-5-5-5-5-5---||


  Gtrs I, II
  E E E E E E   E E E E E E
|-------------|-------------|
|-------------|-------------|
|-------------|-------------|
|-------------|-------------|
|-------------|-------------|
|-4-4-4-4-4-4-|-4-4-4-4-4-4-|


    Gtrs I, II
         PM--|        PM--|
    Q.   E E E   Q.   E E E   Q.   E E E   E E E E E E
||-------------|------------|------------|-------------|
||o------------|------------|------------|-------------|
||-------------|------------|------------|-------------|
||--4----------|-4----------|-4----4-3-0-|-6-6-6-7-7-7-|
||o-1----1-1-1-|-1----1-1-1-|-1----4-3-0-|-6-6-6-7-7-7-|
||--1----1-1-1-|-1----1-1-1-|-1----4-3-0-|-6-6-6-7-7-7-|


  Gtrs I, II
       PM--|        PM--|
  Q.   E E E   Q.   E E E   Q.   E E E   E E E E  E  E
|------------|------------|------------|-----------------||
|------------|------------|------------|----------------o||
|------------|------------|------------|-----------------||
|-4----------|-4----------|-4----4-3-0-|-6-7-7-9-10-10---||
|-1----1-1-1-|-1----1-1-1-|-1----4-3-0-|-6-7-7-9-10-10--o||
|-1----1-1-1-|-1----1-1-1-|-1----4-3-0-|-6-7-7-9-10-10---||


    Gtrs I, II
           PM--|          PM---|           PM---|          PM--|
    E  E E E E E    E E E E  E E   E E  E  E  E E   E  E E E E E
||---------------|---------------|----------------|--------------|
||o--------------|---------------|----------------|--------------|
||---------------|---------------|----------------|--------------|
||--5--5-5-5-5-5-|--4-4-4-4--4-4-|-5-5--5--5--5-5-|-1--1-1-1-1-1-|
||o-5--5-5-5-5-5-|--5-5-5-5--5-5-|-5-5--5--5--5-5-|-1--1-1-1-1-1-|
||--5--5-5-5-5-5-|--4-4-4-4--4-4-|-5-5--5--5--5-5-|-1--1-1-1-1-1-|
|
|   Gtr III
|   Q.     Q   E    Q   E Q.       Q   +E  Q.       H.
||---------------|---------------|----------------|--------------|
||o--------------|---------------|----------------|--------------|
||---------------|---------------|----------------|--------------|
||--5------7---8-|-10---8-7------|-5---(5)s8------|-4------------|
||o--------------|---------------|----------------|--------------|
||--5------7---8-|-10---8-7------|-5---(5)s8------|-4------------|


  Gtrs I, II
         PM--|          PM---|          PM---|          PM---|
  E  E E E E E    E E E E  E E   E  E E E  E E   E  E E E  E E
|--------------|---------------|---------------|-----------------||
|--------------|---------------|---------------|----------------o||
|--------------|---------------|---------------|-----------------||
|-5--5-5-5-5-5-|--4-4-4-4--4-4-|-3--3-3-3--3-3-|-5--5-5-5--5-5---||
|-5--5-5-5-5-5-|--5-5-5-5--5-5-|-1--1-1-1--1-1-|-3--3-3-3--3-3--o||
|-5--5-5-5-5-5-|--4-4-4-4--4-4-|-3--3-3-3--3-3-|-5--5-5-5--5-5---||
|
| Gtr III
| Q.     Q   E    Q   E Q.       Q.     Q.       Q.     Q.
|--------------|---------------|---------------|-----------------||
|--------------|---------------|---------------|----------------o||
|--------------|---------------|-7------8------|-7------5--------||
|-5------7---8-|-10---8-7------|---------------|-----------------||
|--------------|---------------|-5------6------|-5------3-------o||
|-5------7---8-|-10---8-7------|---------------|-----------------||


  Gtrs I, II
  E E E E E E   E E E E E E
|-------------|-------------|
|-------------|-------------|
|-------------|-------------|
|-------------|-------------|
|-------------|-------------|
|-4-4-4-4-4-4-|-4-4-4-4-4-4-|


    Gtrs I, II
         PM--|        PM--|
    Q.   E E E   Q.   E E E   Q.   E E E   E E E E E E
||-------------|------------|------------|-------------|
||o------------|------------|------------|-------------|
||-------------|------------|------------|-------------|
||--4----------|-4----------|-4----4-3-0-|-6-6-6-7-7-7-|
||o-1----1-1-1-|-1----1-1-1-|-1----4-3-0-|-6-6-6-7-7-7-|
||--1----1-1-1-|-1----1-1-1-|-1----4-3-0-|-6-6-6-7-7-7-|


  Gtrs I, II
       PM--|        PM--|
  Q.   E E E   Q.   E E E   Q.   E E E   E E E E  E  E
|------------|------------|------------|-----------------||
|------------|------------|------------|----------------o||
|------------|------------|------------|-----------------||
|-4----------|-4----------|-4----4-3-0-|-6-7-7-9-10-10---||
|-1----1-1-1-|-1----1-1-1-|-1----4-3-0-|-6-7-7-9-10-10--o||
|-1----1-1-1-|-1----1-1-1-|-1----4-3-0-|-6-7-7-9-10-10---||


  Gtrs I, II
  H.        +H.        +H.        +H.
|---------|----------|----------|--------|
|---------|----------|----------|--------|
|---------|----------|----------|--------|
|---------|----------|----------|--------|
|---------|----------|----------|--------|
|-8-------|-(8)------|-(8)------|-(8)----|


  Gtrs I, II
  H.        +H.        +H.        +H.
|---------|----------|----------|--------|
|---------|----------|----------|--------|
|---------|----------|----------|--------|
|---------|----------|----------|--------|
|---------|----------|----------|--------|
|-6-------|-(6)------|-(6)------|-(6)----|


  Gtrs I, II
  H.        +H.        +H.        +H.
|---------|----------|----------|--------|
|---------|----------|----------|--------|
|---------|----------|----------|--------|
|---------|----------|----------|--------|
|---------|----------|----------|--------|
|-4-------|-(4)------|-(4)------|-(4)----|


  Gtrs I, II
  H.        +H.        +H.        +H.
|---------|----------|----------|--------|
|---------|----------|----------|--------|
|---------|----------|----------|--------|
|---------|----------|----------|--------|
|---------|----------|----------|--------|
|-1-------|-(1)------|-(1)------|-(1)----|


  Gtr I
   H.         +H.         +H.         +H.
|----------|-----------|-----------|---------|
|----------|-----------|-----------|---------|
|----------|-----------|-----------|---------|
|----------|-----------|-----------|---------|
|----------|-----------|-----------|---------|
|--8-------|--(8)------|--(8)------|--(8)----|
|
| Gtr II
|  H.         +H.         +H.         +H.
|----------|-----------|-----------|---------|
|----------|-----------|-----------|---------|
|----------|-----------|-----------|---------|
|----------|-----------|-----------|---------|
|----------|-----------|-----------|---------|
|-11-------|-(11)------|-(11)------|-(11)----|


  Gtr I
   H.         +H.         +H.         +H.
|----------|-----------|-----------|---------|
|----------|-----------|-----------|---------|
|----------|-----------|-----------|---------|
|----------|-----------|-----------|---------|
|----------|-----------|-----------|---------|
|--6-------|--(6)------|--(6)------|--(6)----|
|
| Gtr II
|  H.         +H.         +H.         +H.
|----------|-----------|-----------|---------|
|----------|-----------|-----------|---------|
|----------|-----------|-----------|---------|
|----------|-----------|-----------|---------|
|----------|-----------|-----------|---------|
|-10-------|-(10)------|-(10)------|-(10)----|


  Gtr I
  H.        +H.        +H.        +H.
|---------|----------|----------|--------|
|---------|----------|----------|--------|
|---------|----------|----------|--------|
|---------|----------|----------|--------|
|---------|----------|----------|--------|
|-4-------|-(4)------|-(4)------|-(4)----|
|
| Gtr II
| H.        +H.        +H.        +H.
|---------|----------|----------|--------|
|---------|----------|----------|--------|
|---------|----------|----------|--------|
|---------|----------|----------|--------|
|---------|----------|----------|--------|
|-8-------|-(8)------|-(8)------|-(8)----|


  Gtr I
  H.        +H.        +H.        +H.
|---------|----------|----------|--------|
|---------|----------|----------|--------|
|---------|----------|----------|--------|
|---------|----------|----------|--------|
|---------|----------|----------|--------|
|-1-------|-(1)------|-(1)------|-(1)----|
|
| H.        +H.        +H.        +H.
|---------|----------|----------|--------|
|---------|----------|----------|--------|
|---------|----------|----------|--------|
|---------|----------|----------|--------|
|---------|----------|----------|--------|
|-8-------|-(8)------|-(8)------|-(8)----|


    Gtrs I, II
           PM--|          PM---|           PM---|          PM--|
    E  E E E E E    E E E E  E E   E E  E  E  E E   E  E E E E E
||---------------|---------------|----------------|--------------|
||o--------------|---------------|----------------|--------------|
||---------------|---------------|----------------|--------------|
||--5--5-5-5-5-5-|--4-4-4-4--4-4-|-5-5--5--5--5-5-|-1--1-1-1-1-1-|
||o-5--5-5-5-5-5-|--5-5-5-5--5-5-|-5-5--5--5--5-5-|-1--1-1-1-1-1-|
||--5--5-5-5-5-5-|--4-4-4-4--4-4-|-5-5--5--5--5-5-|-1--1-1-1-1-1-|
|
|   Gtr III
|   Q.     Q   E    Q   E Q.       Q   +E  Q.       H.
||---------------|---------------|----------------|--------------|
||o--------------|---------------|----------------|--------------|
||---------------|---------------|----------------|--------------|
||--5------7---8-|-10---8-7------|-5---(5)s8------|-4------------|
||o--------------|---------------|----------------|--------------|
||--5------7---8-|-10---8-7------|-5---(5)s8------|-4------------|


  Gtrs I, II
         PM--|          PM---|          PM---|          PM---|
  E  E E E E E    E E E E  E E   E  E E E  E E   E  E E E  E E
|--------------|---------------|---------------|-----------------||
|--------------|---------------|---------------|----------------o||
|--------------|---------------|---------------|-----------------||
|-5--5-5-5-5-5-|--4-4-4-4--4-4-|-3--3-3-3--3-3-|-5--5-5-5--5-5---||
|-5--5-5-5-5-5-|--5-5-5-5--5-5-|-1--1-1-1--1-1-|-3--3-3-3--3-3--o||
|-5--5-5-5-5-5-|--4-4-4-4--4-4-|-3--3-3-3--3-3-|-5--5-5-5--5-5---||
|
| Gtr III
| Q.     Q   E    Q   E Q.       Q.     Q.       Q.     Q.
|--------------|---------------|---------------|-----------------||
|--------------|---------------|---------------|----------------o||
|--------------|---------------|-7------8------|-7------5--------||
|-5------7---8-|-10---8-7------|---------------|-----------------||
|--------------|---------------|-5------6------|-5------3-------o||
|-5------7---8-|-10---8-7------|---------------|-----------------||


  Gtrs I, II
  E E E E E E   E E E E E E
|-------------|-------------|
|-------------|-------------|
|-------------|-------------|
|-------------|-------------|
|-------------|-------------|
|-4-4-4-4-4-4-|-4-4-4-4-4-4-|


  Gtrs I, II
       PM--|        PM--|
  Q.   E E E   Q.   E E E   Q.   E E E   E E E E E E
|------------|------------|------------|--------------|
|------------|------------|------------|--------------|
|------------|------------|------------|--------------|
|-4----------|-4----------|-4----4-3-0-|-6-6-6-7-7-7--|
|-1----1-1-1-|-1----1-1-1-|-1----4-3-0-|-6-6-6-7-7-7--|
|-1----1-1-1-|-1----1-1-1-|-1----4-3-0-|-6-6-6-7-7-7--|


  Gtrs I, II
       PM--|        PM--|
  Q.   E E E   Q.   E E E   Q.   E E E   E E E E  E  E
|------------|------------|------------|----------------|
|------------|------------|------------|----------------|
|------------|------------|------------|----------------|
|-4----------|-4----------|-4----4-3-0-|-6-7-7-9-10-10--|
|-1----1-1-1-|-1----1-1-1-|-1----4-3-0-|-6-7-7-9-10-10--|
|-1----1-1-1-|-1----1-1-1-|-1----4-3-0-|-6-7-7-9-10-10--|


  Gtrs I, II
  Q  H      H.        E E E E E E   E E E E E E
|---------|---------|-------------|--------------|
|---------|---------|-------------|--------------|
|---------|---------|-------------|--------------|
|-4-------|---------|-4-4-4-4-3-0-|-6-6-6-7-7-7--|
|-1-------|---------|-1-1-1-4-3-0-|-6-6-6-7-7-7--|
|-1-------|---------|-1-1-1-4-3-0-|-6-6-6-7-7-7--|


  Gtrs I, II
       PM--|        PM--|
  Q.   E E E   Q.   E E E   Q.   E E E   E E E E  E  E
|------------|------------|------------|----------------|
|------------|------------|------------|----------------|
|------------|------------|------------|----------------|
|-4----------|-4----------|-4----4-3-0-|-6-7-7-9-10-10--|
|-1----1-1-1-|-1----1-1-1-|-1----4-3-0-|-6-7-7-9-10-10--|
|-1----1-1-1-|-1----1-1-1-|-1----4-3-0-|-6-7-7-9-10-10--|


  Gtrs I, II
  H.        +H.        +H.        +H.
|---------|----------|----------|--------|
|---------|----------|----------|--------|
|---------|----------|----------|--------|
|---------|----------|----------|--------|
|---------|----------|----------|--------|
|-8-------|-(8)------|-(8)------|-(8)----|


  Gtrs I, II
  H.        +H.        +H.        +H.
|---------|----------|----------|--------|
|---------|----------|----------|--------|
|---------|----------|----------|--------|
|---------|----------|----------|--------|
|---------|----------|----------|--------|
|-6-------|-(6)------|-(6)------|-(6)----|


  Gtrs I, II
  H.        +H.        +H.        +H.
|---------|----------|----------|--------|
|---------|----------|----------|--------|
|---------|----------|----------|--------|
|---------|----------|----------|--------|
|---------|----------|----------|--------|
|-4-------|-(4)------|-(4)------|-(4)----|


  Gtrs I, II
  H.        +H.        +H.        +H.
|---------|----------|----------|--------|
|---------|----------|----------|--------|
|---------|----------|----------|--------|
|---------|----------|----------|--------|
|---------|----------|----------|--------|
|-1-------|-(1)------|-(1)------|-(1)----|


  Gtr I
   H.         +H.         +H.         +H.
|----------|-----------|-----------|---------|
|----------|-----------|-----------|---------|
|----------|-----------|-----------|---------|
|----------|-----------|-----------|---------|
|----------|-----------|-----------|---------|
|--8-------|--(8)------|--(8)------|--(8)----|
|
| Gtr II
|  H.         +H.         +H.         +H.
|----------|-----------|-----------|---------|
|----------|-----------|-----------|---------|
|----------|-----------|-----------|---------|
|----------|-----------|-----------|---------|
|----------|-----------|-----------|---------|
|-11-------|-(11)------|-(11)------|-(11)----|


  Gtr I
   H.         +H.         +H.         +H.
|----------|-----------|-----------|---------|
|----------|-----------|-----------|---------|
|----------|-----------|-----------|---------|
|----------|-----------|-----------|---------|
|----------|-----------|-----------|---------|
|--6-------|--(6)------|--(6)------|--(6)----|
|
| Gtr II
|  H.         +H.         +H.         +H.
|----------|-----------|-----------|---------|
|----------|-----------|-----------|---------|
|----------|-----------|-----------|---------|
|----------|-----------|-----------|---------|
|----------|-----------|-----------|---------|
|-10-------|-(10)------|-(10)------|-(10)----|


  Gtr I
  H.        +H.        +H.        +H.
|---------|----------|----------|--------|
|---------|----------|----------|--------|
|---------|----------|----------|--------|
|---------|----------|----------|--------|
|---------|----------|----------|--------|
|-1-------|-(1)------|-(1)------|-(1)----|
|
| H.        +H.        +H.        +H.
|---------|----------|----------|--------|
|---------|----------|----------|--------|
|---------|----------|----------|--------|
|---------|----------|----------|--------|
|---------|----------|----------|--------|
|-8-------|-(8)------|-(8)------|-(8)----|


  Gtr I
  H.        +H.        +H.        +H.
|---------|----------|----------|--------|
|---------|----------|----------|--------|
|---------|----------|----------|--------|
|---------|----------|----------|--------|
|---------|----------|----------|--------|
|-4-------|-(4)------|-(4)------|-(4)----|
|
| Gtr II
| H.        +H.        +H.        +H.
|---------|----------|----------|--------|
|---------|----------|----------|--------|
|---------|----------|----------|--------|
|---------|----------|----------|--------|
|---------|----------|----------|--------|
|-8-------|-(8)------|-(8)------|-(8)----|


    Gtrs I, II
         PM--|        PM--|        PM--|        PM--|
    Q.   E E E   Q.   E E E   Q.   E E E   Q.   E E E
||-------------|------------|------------|------------|
||o------------|------------|------------|------------|
||-------------|------------|------------|------------|
||--4----------|-4----------|-4----------|-4----------|
||o-1----1-1-1-|-1----1-1-1-|-1----1-1-1-|-1----1-1-1-|
||--1----1-1-1-|-1----1-1-1-|-1----1-1-1-|-1----1-1-1-|


  Gtrs I, II
       PM--|        PM--|        PM--|        PM--|
  Q.   E E E   Q.   E E E   Q.   E E E   Q.   E E E
|------------|------------|------------|--------------||
|------------|------------|------------|-------------o||
|------------|------------|------------|--------------||
|-4----------|-4----------|-4----------|-4------------||
|-0----0-0-0-|-0----0-0-0-|-0----0-0-0-|-0----0-0-0--o||
|-0----0-0-0-|-0----0-0-0-|-0----0-0-0-|-0----0-0-0---||


  Gtrs I, II
       PM--|        PM--|         PM--|        PM---|
  Q.   E E E   Q.   E E E    Q.   E E E   Q.   E  E E
|------------|------------|-------------|--------------|
|------------|------------|-------------|--------------|
|------------|------------|-------------|--------------|
|-4----------|-4----------|--4----------|-4------------|
|-1----1-1-1-|-1----1-1-1-|--1----1-1-1-|-1----1--1-1--|
|-1----1-1-1-|-1----1-1-1-|--1----1-1-1-|-1----1--1-1--|
|
| Gtr III
| H.           H.           +H.           Q.   Q.
|------------|------------|-------------|--------------|
|------------|-7----------|-(7)---------|-9----7-------|
|-8----------|------------|-------------|--------------|
|------------|-4----------|-(4)---------|-6----4-------|
|-6----------|------------|-------------|--------------|
|------------|------------|-------------|--------------|


  Gtrs I, II
       PM--|        PM--|         PM--|         PM--|
  Q.   E E E   Q.   E E E    Q.   E E E    Q.   E E E
|------------|------------|-------------|--------------|
|------------|------------|-------------|--------------|
|------------|------------|-------------|--------------|
|-4----------|-4----------|--4----------|--4-----------|
|-0----0-0-0-|-0----0-0-0-|--0----0-0-0-|--0----0-0-0--|
|-0----0-0-0-|-0----0-0-0-|--0----0-0-0-|--0----0-0-0--|
|
| Gtr III
| H.           H.           +H.           +H.
|------------|------------|-------------|--------------|
|-7----------|------------|-------------|--------------|
|------------|-7----------|-(7)---------|-(7)----------|
|-4----------|------------|-------------|--------------|
|------------|-5----------|-(5)---------|-(5)----------|
|------------|------------|-------------|--------------|


  Gtrs I, II
       PM--|        PM--|         PM--|        PM--|
  Q.   E E E   Q.   E E E    Q.   E E E   Q.   E E  E
|------------|------------|-------------|----------------|
|------------|------------|-------------|----------------|
|------------|------------|-------------|----------------|
|-4----------|-4----------|--4----------|-4--------------|
|-1----1-1-1-|-1----1-1-1-|--1----1-1-1-|-1----1-1--1----|
|-1----1-1-1-|-1----1-1-1-|--1----1-1-1-|-1----1-1--1----|
|
| Gtr III
| H.           H.           +H.           Q.   Q   +E
|------------|------------|-------------|----------------|
|------------|-7----------|-(7)---------|-9----7---(7)S==|
|-8----------|------------|-------------|----------------|
|------------|-4----------|-(4)---------|-6----4---(4)S==|
|-6----------|------------|-------------|----------------|
|------------|------------|-------------|----------------|


  Gtrs I, II
        PM--|          PM--|             PM--|              PM--|
   Q.   E E E     Q.   E E E    Q.       E E E   Q.         E E E
|-------------|--------------|-----------------|-------------------|
|-------------|--------------|-----------------|-------------------|
|-------------|--------------|-----------------|-------------------|
|--4----------|---4----------|--4--------------|-4-----------------|
|--0----0-0-0-|---0----0-0-0-|--0--------0-0-0-|-0----------0-0-0--|
|--0----0-0-0-|---0----0-0-0-|--0--------0-0-0-|-0----------0-0-0--|
|
| Gtr III
|  H.            +H.            E. S +H          E.  S  +H
|-------------|--------------|-----------------|-------------------|
|-10----------|-(10)---------|-10--9-(9)-------|-9--10-(10)--------|
|-------------|--------------|-----------------|-------------------|
|--7----------|--(7)---------|--7--6-(6)-------|-6---7--(7)--------|
|-------------|--------------|-----------------|-------------------|
|-------------|--------------|-----------------|-------------------|


  Gtrs I, II
       PM--|        PM--|         PM--|        PM---|
  Q.   E E E   Q.   E E E    Q.   E E E   Q.   E  E E
|------------|------------|-------------|--------------|
|------------|------------|-------------|--------------|
|------------|------------|-------------|--------------|
|-4----------|-4----------|--4----------|-4------------|
|-1----1-1-1-|-1----1-1-1-|--1----1-1-1-|-1----1--1-1--|
|-1----1-1-1-|-1----1-1-1-|--1----1-1-1-|-1----1--1-1--|
|
| Gtr III
| H.           H.           +H.           Q.   Q.
|------------|------------|-------------|--------------|
|------------|-7----------|-(7)---------|-9----7-------|
|-8----------|------------|-------------|--------------|
|------------|-4----------|-(4)---------|-6----4-------|
|-6----------|------------|-------------|--------------|
|------------|------------|-------------|--------------|


  Gtrs I, II
        PM--|        PM--|        PM--|        PM--|
   Q.   E E E   Q.   E E E   Q.   E E E   Q.   E E E
|-------------|------------|------------|-------------|
|-------------|------------|------------|-------------|
|-------------|------------|------------|-------------|
|--4----------|-4----------|-4----------|-4-----------|
|--0----0-0-0-|-0----0-0-0-|-0----0-0-0-|-0----0-0-0--|
|--0----0-0-0-|-0----0-0-0-|-0----0-0-0-|-0----0-0-0--|
|
|  H.           H.           H.           H.
|-------------|------------|------------|-------------|
|-10----------|-9----------|-7----------|-9-----------|
|-------------|------------|------------|-------------|
|--7----------|-6----------|-4----------|-6-----------|
|-------------|------------|------------|-------------|
|-------------|------------|------------|-------------|


  Gtrs I, II
       PM--|        PM--|         PM--|        PM--|
  Q.   E E E   Q.   E E E    Q.   E E E   Q.   E E  E
|------------|------------|-------------|----------------|
|------------|------------|-------------|----------------|
|------------|------------|-------------|----------------|
|-4----------|-4----------|--4----------|-4--------------|
|-1----1-1-1-|-1----1-1-1-|--1----1-1-1-|-1----1-1--1----|
|-1----1-1-1-|-1----1-1-1-|--1----1-1-1-|-1----1-1--1----|
|
| Gtr III
| H.           H.           +H.           Q.   Q   +E
|------------|------------|-------------|----------------|
|------------|-7----------|-(7)---------|-9----7---(7)s==|
|-8----------|------------|-------------|----------------|
|------------|-4----------|-(4)---------|-6----4---(4)s==|
|-6----------|------------|-------------|----------------|
|------------|------------|-------------|----------------|


  Gtrs I, II
        PM--|          PM--|          PM--|          PM--|
   Q.   E E E     Q.   E E E     Q.   E E E     Q.   E E E
|-------------|--------------|--------------|---------------|
|-------------|--------------|--------------|---------------|
|-------------|--------------|--------------|---------------|
|--4----------|---4----------|---4----------|---4-----------|
|--0----0-0-0-|---0----0-0-0-|---0----0-0-0-|---0----0-0-0--|
|--0----0-0-0-|---0----0-0-0-|---0----0-0-0-|---0----0-0-0--|
|
| Gtr III
|  H.            +H.            +H.            +H.
|-------------|--------------|--------------|---------------|
|-10----------|-(10)---------|-(10)---------|-(10)----------|
|-------------|--------------|--------------|---------------|
|--7----------|--(7)---------|--(7)---------|--(7)----------|
|-------------|--------------|--------------|---------------|
|-------------|--------------|--------------|---------------|


  Gtr I
   E  E  E  E  E  E    E  E  E  E  E  E
|-------------------|-------------------|
|-11-11-11-11-11-11-|-11-11-11-11-11-11-|
|-10-10-10-10-10-10-|-10-10-10-10-10-10-|
|--8--8--8--8--8--8-|--8--8--8--8--8--8-|
|--8--8--8--8--8--8-|--8--8--8--8--8--8-|
|--8--8--8--8--8--8-|--8--8--8--8--8--8-|
|
| Gtr II
|  E  E  E  E  E  E    E  E  E  E  E  E
|-------------------|-------------------|
|-------------------|-------------------|
|--6--6--6--6--6--6-|--6--6--6--6--6--6-|
|-------------------|-------------------|
|--4--4--4--4--4--4-|--4--4--4--4--4--4-|
|-------------------|-------------------|


   E  E  E  E  E  E    E  E  E  E  E  E
|-------------------|--------------------|
|-11-11-11-11-11-11-|-11-11-11-11-11-11--|
|-10-10-10-10-10-10-|-10-10-10-10-10-10--|
|--8--8--8--8--8--8-|--8--8--8--8--8--8--|
|--8--8--8--8--8--8-|--8--8--8--8--8--8--|
|--8--8--8--8--8--8-|--8--8--8--8--8--8--|
|
|  E  E  E  E  E  E    E  E  E  E  E  E
|-------------------|--------------------|
|-------------------|--------------------|
|--6--6--6--6--6--6-|--6--6--6--6--6--6--|
|-------------------|--------------------|
|--4--4--4--4--4--4-|--4--4--4--4--4--4--|
|-------------------|--------------------|


  Gtr I
  E E E E E E   E E E E E E   E E E E E E   E E E E E E
|-------------|-------------|-------------|--------------|
|-9-9-9-9-9-9-|-9-9-9-9-9-9-|-9-9-9-9-9-9-|-9-9-9-9-9-9--|
|-8-8-8-8-8-8-|-8-8-8-8-8-8-|-8-8-8-8-8-8-|-8-8-8-8-8-8--|
|-6-6-6-6-6-6-|-6-6-6-6-6-6-|-6-6-6-6-6-6-|-6-6-6-6-6-6--|
|-6-6-6-6-6-6-|-6-6-6-6-6-6-|-6-6-6-6-6-6-|-6-6-6-6-6-6--|
|-6-6-6-6-6-6-|-6-6-6-6-6-6-|-6-6-6-6-6-6-|-6-6-6-6-6-6--|
|
| Gtr II
| E E E E E E   E E E E E E   E E E E E E   E E E E E E
|-------------|-------------|-------------|--------------|
|-------------|-------------|-------------|--------------|
|-5-5-5-5-5-5-|-5-5-5-5-5-5-|-5-5-5-5-5-5-|-5-5-5-5-5-5--|
|-------------|-------------|-------------|--------------|
|-3-3-3-3-3-3-|-3-3-3-3-3-3-|-3-3-3-3-3-3-|-3-3-3-3-3-3--|
|-------------|-------------|-------------|--------------|


  Gtr I
  E E E E E E   E E E E E E   E E E E E E   E E E E E E
|-------------|-------------|-------------|--------------|
|-7-7-7-7-7-7-|-7-7-7-7-7-7-|-7-7-7-7-7-7-|-7-7-7-7-7-7--|
|-6-6-6-6-6-6-|-6-6-6-6-6-6-|-6-6-6-6-6-6-|-6-6-6-6-6-6--|
|-4-4-4-4-4-4-|-4-4-4-4-4-4-|-4-4-4-4-4-4-|-4-4-4-4-4-4--|
|-4-4-4-4-4-4-|-4-4-4-4-4-4-|-4-4-4-4-4-4-|-4-4-4-4-4-4--|
|-4-4-4-4-4-4-|-4-4-4-4-4-4-|-4-4-4-4-4-4-|-4-4-4-4-4-4--|
|
| Gtr II
| E E E E E E   E E E E E E   E E E E E E   E E E E E E
|-------------|-------------|-------------|--------------|
|-------------|-------------|-------------|--------------|
|-3-3-3-3-3-3-|-3-3-3-3-3-3-|-3-3-3-3-3-3-|-3-3-3-3-3-3--|
|-------------|-------------|-------------|--------------|
|-1-1-1-1-1-1-|-1-1-1-1-1-1-|-1-1-1-1-1-1-|-1-1-1-1-1-1--|
|-------------|-------------|-------------|--------------|


  Gtrs I, II
       PM--|        PM--|        PM--|        PM--|
  Q.   E E E   Q.   E E E   Q.   E E E   Q.   E E E
|------------|------------|------------|-------------|
|------------|------------|------------|-------------|
|------------|------------|------------|-------------|
|-1----------|-1----------|-1----------|-1-----------|
|-1----1-1-1-|-1----1-1-1-|-1----1-1-1-|-1----1-1-1--|
|-1----1-1-1-|-1----1-1-1-|-1----1-1-1-|-1----1-1-1--|


  Gtr I
   E  E  E  E  E  E    E  E  E  E  E  E
|-------------------|-------------------|
|-11-11-11-11-11-11-|-11-11-11-11-11-11-|
|-10-10-10-10-10-10-|-10-10-10-10-10-10-|
|--8--8--8--8--8--8-|--8--8--8--8--8--8-|
|--8--8--8--8--8--8-|--8--8--8--8--8--8-|
|--8--8--8--8--8--8-|--8--8--8--8--8--8-|
|
| Gtr II
|  E  E  E  E  E  E    E  E  E  E  E  E
|-------------------|-------------------|
|-------------------|-------------------|
|--6--6--6--6--6--6-|--6--6--6--6--6--6-|
|-------------------|-------------------|
|--4--4--4--4--4--4-|--4--4--4--4--4--4-|
|-------------------|-------------------|


   E  E  E  E  E  E    E  E  E  E  E  E
|-------------------|--------------------|
|-11-11-11-11-11-11-|-11-11-11-11-11-11--|
|-10-10-10-10-10-10-|-10-10-10-10-10-10--|
|--8--8--8--8--8--8-|--8--8--8--8--8--8--|
|--8--8--8--8--8--8-|--8--8--8--8--8--8--|
|--8--8--8--8--8--8-|--8--8--8--8--8--8--|
|
|  E  E  E  E  E  E    E  E  E  E  E  E
|-------------------|--------------------|
|-------------------|--------------------|
|--6--6--6--6--6--6-|--6--6--6--6--6--6--|
|-------------------|--------------------|
|--4--4--4--4--4--4-|--4--4--4--4--4--4--|
|-------------------|--------------------|


  Gtr I
  E E E E E E   E E E E E E   E E E E E E   E E E E E E
|-------------|-------------|-------------|--------------|
|-9-9-9-9-9-9-|-9-9-9-9-9-9-|-9-9-9-9-9-9-|-9-9-9-9-9-9--|
|-8-8-8-8-8-8-|-8-8-8-8-8-8-|-8-8-8-8-8-8-|-8-8-8-8-8-8--|
|-6-6-6-6-6-6-|-6-6-6-6-6-6-|-6-6-6-6-6-6-|-6-6-6-6-6-6--|
|-6-6-6-6-6-6-|-6-6-6-6-6-6-|-6-6-6-6-6-6-|-6-6-6-6-6-6--|
|-6-6-6-6-6-6-|-6-6-6-6-6-6-|-6-6-6-6-6-6-|-6-6-6-6-6-6--|
|
| Gtr II
| E E E E E E   E E E E E E   E E E E E E   E E E E E E
|-------------|-------------|-------------|--------------|
|-------------|-------------|-------------|--------------|
|-5-5-5-5-5-5-|-5-5-5-5-5-5-|-5-5-5-5-5-5-|-5-5-5-5-5-5--|
|-------------|-------------|-------------|--------------|
|-3-3-3-3-3-3-|-3-3-3-3-3-3-|-3-3-3-3-3-3-|-3-3-3-3-3-3--|
|-------------|-------------|-------------|--------------|


  Gtr I
  E E E E E E   E E E E E E   E E E E E E   E E E E E E
|-------------|-------------|-------------|--------------|
|-4-4-4-4-4-4-|-4-4-4-4-4-4-|-4-4-4-4-4-4-|-4-4-4-4-4-4--|
|-3-3-3-3-3-3-|-3-3-3-3-3-3-|-3-3-3-3-3-3-|-3-3-3-3-3-3--|
|-1-1-1-1-1-1-|-1-1-1-1-1-1-|-1-1-1-1-1-1-|-1-1-1-1-1-1--|
|-1-1-1-1-1-1-|-1-1-1-1-1-1-|-1-1-1-1-1-1-|-1-1-1-1-1-1--|
|-1-1-1-1-1-1-|-1-1-1-1-1-1-|-1-1-1-1-1-1-|-1-1-1-1-1-1--|
|
| Gtr II
| E E E E E E   E E E E E E   E E E E E E   E E E E E E
|-------------|-------------|-------------|--------------|
|-------------|-------------|-------------|--------------|
|-3-3-3-3-3-3-|-3-3-3-3-3-3-|-3-3-3-3-3-3-|-3-3-3-3-3-3--|
|-------------|-------------|-------------|--------------|
|-1-1-1-1-1-1-|-1-1-1-1-1-1-|-1-1-1-1-1-1-|-1-1-1-1-1-1--|
|-------------|-------------|-------------|--------------|


  Gtr I
  E E E E E E   E E E E E E   E E E E E E   E E E E E E
|-------------|-------------|-------------|--------------|
|-7-7-7-7-7-7-|-7-7-7-7-7-7-|-7-7-7-7-7-7-|-7-7-7-7-7-7--|
|-6-6-6-6-6-6-|-6-6-6-6-6-6-|-6-6-6-6-6-6-|-6-6-6-6-6-6--|
|-4-4-4-4-4-4-|-4-4-4-4-4-4-|-4-4-4-4-4-4-|-4-4-4-4-4-4--|
|-4-4-4-4-4-4-|-4-4-4-4-4-4-|-4-4-4-4-4-4-|-4-4-4-4-4-4--|
|-4-4-4-4-4-4-|-4-4-4-4-4-4-|-4-4-4-4-4-4-|-4-4-4-4-4-4--|
|
| Gtr II
| E E E E E E   E E E E E E   E E E E E E   E E E E E E
|-------------|-------------|-------------|--------------|
|-------------|-------------|-------------|--------------|
|-3-3-3-3-3-3-|-3-3-3-3-3-3-|-3-3-3-3-3-3-|-3-3-3-3-3-3--|
|-------------|-------------|-------------|--------------|
|-1-1-1-1-1-1-|-1-1-1-1-1-1-|-1-1-1-1-1-1-|-1-1-1-1-1-1--|
|-------------|-------------|-------------|--------------|


    Gtrs I, II
          PM--|         PM--|         PM--|         PM--|
    E E E E E E   E E E E E E   E E E E E E   E E E E E E
||--------------|-------------|-------------|-------------|
||o-------------|-------------|-------------|-------------|
||--------------|-------------|-------------|-------------|
||--5-5-5-5-5-5-|-4-4-4-4-4-4-|-5-5-5-5-5-5-|-1-1-1-1-1-1-|
||o-5-5-5-5-5-5-|-5-5-5-5-5-5-|-5-5-5-5-5-5-|-1-1-1-1-1-1-|
||--5-5-5-5-5-5-|-4-4-4-4-4-4-|-5-5-5-5-5-5-|-1-1-1-1-1-1-|


  Gtrs I, II
        PM--|         PM--|         PM--|         PM--|
  E E E E E E   E E E E E E   E E E E E E   E E E E E E
|-------------|-------------|-------------|---------------||
|-------------|-------------|-------------|--------------o||
|-------------|-------------|-------------|---------------||
|-5-5-5-5-5-5-|-4-4-4-4-4-4-|-3-3-3-3-3-3-|-5-5-5-5-5-5---||
|-5-5-5-5-5-5-|-5-5-5-5-5-5-|-1-1-1-1-1-1-|-3-3-3-3-3-3--o||
|-5-5-5-5-5-5-|-4-4-4-4-4-4-|-3-3-3-3-3-3-|-5-5-5-5-5-5---||


  Gtrs I, II
    PM
  E Q..   E.
|---------------*|
|---------------*|
|---------------*|
|-5-5-----------*|
|-3-3-----------*|
|-5-5-----------*|



Duration Legend
---------------
W - whole; H - half; Q - quarter; E - 8th; S - 16th; T - 32nd; X - 64th; a - acciaccatura
+ - note tied to previous; . - note dotted; .. - note double dotted
Uncapitalized letters represent notes that are staccato (1/2 duration)
Irregular groupings are notated above the duration line
Duration letters will always appear directly above the note/fret number it represents the
duration for.  Duration letters with no fret number below them represent rests.  Multi-
bar rests are notated in the form Wxn, where n is the number of bars to rest for.  Low
melody durations appear below the staff

Tablature Legend
----------------
 h   - hammer-on
 p   - pull-off
 b   - bend
 pb  - pre-bend
 r   - bend release (if no number after the r, then release immediately)
 /\  - slide into or out of (from/to "nowhere")
 s   - legato slide
 S   - shift slide
 - natural harmonic
[n]  - artificial harmonic
n(n) - tapped harmonic
 ~   - vibrato
 tr  - trill
 T   - tap
 TP  - trem. picking
 PM  - palm muting
\n/  - tremolo bar dip; n = amount to dip
 \n  - tremolo bar down
 n/  - tremolo bar up
/n\  - tremolo bar inverted dip
 =   - hold bend; also acts as connecting device for hammers/pulls
 <> - volume swell (louder/softer)
 x   - on rhythm slash represents muted slash
 o   - on rhythm slash represents single note slash

Misc Legend
-----------
 |  - bar
||  - double bar
||o - repeat start
o|| - repeat end
*|  - double bar (ending)
 :  - bar (freetime)
 $  - Segno
 &  - Coda
Tempo markers -  = BPM(8/16=s8/s16), where s8 = swing 8ths, s16 = swing 16ths


            
            
Suggest correction
Creating personal tab
Creating personal tab
You can edit any tab online and save it as your Personal.

You can edit, replace or remove any tab part or add personal notes – all changes will be seen only by you.

Personal tabs can be accessed anytime from any device, even offline.
Learn more »
Give kudos to tab author, rate the tab!
1 2 3 4 5
comments
print report bad tab
guest
You may want to rate the tab now too:
select rating
Wanna post a correction for this tab? Suggest correction