Oops, an error
Loading. Please wait.

Respect Me In The Morning tab

version 1
version 1

Whole song

Interactive

451 views 1 this week
no commentswrite comment
1 2 3 4 5
2 more votes to show rating
add to favorites
×
Save as Personal and add changes to this tab that will be seen only by you. Learn more ›
×
You can save this tab as Personal to edit and correct it or add notes. All changes will be seen only by you. Learn more »
launch autoscroll
font size
0
reset
how to read this tab
guitar tuner
edit
Autoscroll
slow
fast
+/-
esc
set tempo
stop
Author
Difficulty
-------------------------------------------------------------------------------
1.                  Respect Me In The Morning - Molly Hatchet
2.                         Take No Prisoners-1981
3.             Words and Music-Duane Roland and Jimmy Farrar
------------------------------------------------------------------------------- 
Tabbed by: Duane Baldwin
Email: duaneandjulie@gmail.com
Tuning: Standerd

Intro: Guitar I
e|----------------------------------------------------------------------|
B|---------------------------------------------------------------7\-----|
G|---------------------------------------------------------------7\-----|
D|--2-2-2-2-2-2-2-2-2-5-5-5-5-5-5-5-7-7-7-7-7-7-7-7-7-7-7-7-7-7--7\-----|
A|--0-0-0-0-0-0-0-0-0-0-0-0-0-0-0-0-0-0-0-0-0-0-0-0-0-0-0-0-0-0---------|
E|----------------------------------------------------------------------|
Intro: Guitar II
e|----------------------------------------------------------------------|
B|---------------------------------------------------------------7------|
G|---------------------------------------------------------------7\-----|
D|---------------------------------------------------------------7\-----|
A|--0-0-0-0-0-0-0-0-0-0-0-0-0-0-0-0-0-0-0-0-0-0-0-0-0-0-0-0-0-0---------|
E|----------------------------------------------------------------------|

Intro: Guitar III
e|----------------------------------------------------------------------|
B|---------------------------------------------------------------5\-----|
G|---------------------------------------------------------------5\-----|
D|--2-2-2-2-2-2-2-2-2-2-2-2-2-2-2-2-5-5-5-5-5-5-5-5-5-5-5-5-5-5--5\-----|
A|--0-0-0-0-0-0-0-0-0-0-0-0-0-0-0-0-0-0-0-0-0-0-0-0-0-0-0-0-0-0--0------|
E|----------------------------------------------------------------------|

Guitar I
e|-------------------------|-------------------------------|
B|-------------------------|-------------------------------|
G|-----5h6--7--5h6--7--7---|-----5h6--7--5--5--------------|
D|-----5----7--5----7--7---|-----5----7--5--5--------------|
A|--0--0----0--0----0--0---|--0--0----0--3--3--5--5--6--7--|
E|-------------------------|-------------------3--3--4--5--|

Guitar II
e|-------------------------|-------------------------------|
B|-------------------------|-------------------------------|
G|-----5h6--7--5h6--7--7---|-----5h6--7--5--5--------------|
D|-----5----7--5----7--7---|-----5----7--5--5--------------|
A|-----0----0--0----0--0---|-----0----0--3--3--5--5--6--7--|
E|-------------------------|-------------------3--3--4--5--|

Guitar III
e|----------------------------------|-------------------------------------|
B|----------------------------------|-------------------------------------|
G|-----5h6-----7-----5h6-----7--7---|-----5h6-----7-----5--5--------------|
D|-----5h6-----7-----5h6-----7--7---|-----5h6-----7-----5--5--------------|
A|--0--0----0--0--0--0----0--0--0---|--0--0----0--0--0--3--3--5--5--6--7--|
E|----------------------------------|-------------------------3--3--4--5--|

Guitar I
e|-------------------------|-------------------------|
B|-------------------------|-------------8--8--8--7--|
G|-----5h6--7--5h6--7--7---|-----5h6--7--7--7--7--7--|
D|-----5----7--5----7--7---|-----5----7--7--7--7--7--|
A|--0--0----0--0----0--0---|--0--0----0--------------|
E|-------------------------|-------------------------|

Guitar II
e|-------------------------|-------------------------|
B|-------------------------|-------------8--8--8--7--|
G|-----5h6--7--5h6--7--7---|-----5h6--7--7--7--7--7--|
D|-----5----7--5----7--7---|-----5----7--7--7--7--7--|
A|-----0----0--0----0--0---|-----0----0--------------|
E|-------------------------|-------------------------|

Guitar III
e|----------------------------------|-------------------------------------|
B|----------------------------------|-------------------------------------|
G|-----5h6-----7-----5h6-----7--7---|-----5h6-----7-----5--5--------------|
D|-----5h6-----7-----5h6-----7--7---|-----5h6-----7-----5--5--------------|
A|--0--0----0--0--0--0----0--0--0---|--0--0----0--0--0--3--3--5--5--6--7--|
E|----------------------------------|-------------------------3--3--4--5--|

First Solo: Guitar II
e|-------------------------|-------------------------------|
B|-------------------------|-------------------------------|
G|-----5h6--7--5h6--7--7---|-----5h6--7--5--5--------------|
D|-----5----7--5----7--7---|-----5----7--5--5--------------|
A|-----0----0--0----0--0---|-----0----0--3--3--5--5--6--7--|
E|-------------------------|-------------------3--3--4--5--|

First Solo: Guitar III
e|----------------------------------|-------------------------------------|
B|----------------------------------|-------------------------------------|
G|-----5h6-----7-----5h6-----7--7---|-----5h6-----7-----5--5--------------|
D|-----5h6-----7-----5h6-----7--7---|-----5h6-----7-----5--5--------------|
A|--0--0----0--0--0--0----0--0--0---|--0--0----0--0--0--3--3--5--5--6--7--|
E|----------------------------------|-------------------------3--3--4--5--|

Guitar II
e|-------------------------|-------------------------------|
B|-------------------------|-------------------------------|
G|-----5h6--7--5h6--7--7---|-----5h6--7--5--5--------------|
D|-----5----7--5----7--7---|-----5----7--5--5--------------|
A|-----0----0--0----0--0---|-----0----0--3--3--5--5--6--7--|
E|-------------------------|-------------------3--3--4--5--|

Guitar III
e|----------------------------------|-------------------------------------|
B|----------------------------------|-------------------------------------|
G|-----5h6-----7-----5h6-----7--7---|-----5h6-----7-----5--5--------------|
D|-----5h6-----7-----5h6-----7--7---|-----5h6-----7-----5--5--------------|
A|--0--0----0--0--0--0----0--0--0---|--0--0----0--0--0--3--3--5--5--6--7--|
E|----------------------------------|-------------------------3--3--4--5--|

Verse I and II: Guitar I
e|-------------------------|-------------------------------|
B|-------------------------|-------------------------------|
G|-----5h6--7--5h6--7--7---|-----5h6--7--5--5--------------|
D|-----5----7--5----7--7---|-----5----7--5--5--------------|
A|--0--0----0--0----0--0---|--0--0----0--3--3--5--5--6--7--|
E|-------------------------|-------------------3--3--4--5--|

 Verse I and II: Guitar II
e|-------------------------|-------------------------------|
B|-------------------------|-------------------------------|
G|-----5h6--7--5h6--7--7---|-----5h6--7--5--5--------------|
D|-----5----7--5----7--7---|-----5----7--5--5--------------|
A|-----0----0--0----0--0---|-----0----0--3--3--5--5--6--7--|
E|-------------------------|-------------------3--3--4--5--|

Verse I and II: Guitar III
e|----------------------------------|-------------------------------------|
B|----------------------------------|-------------------------------------|
G|-----5h6-----7-----5h6-----7--7---|-----5h6-----7-----5--5--------------|
D|-----5h6-----7-----5h6-----7--7---|-----5h6-----7-----5--5--------------|
A|--0--0----0--0--0--0----0--0--0---|--0--0----0--0--0--3--3--5--5--6--7--|
E|----------------------------------|-------------------------3--3--4--5--|

Guitar I
e|-------------------------|-------------------------|
B|-------------------------|-------------8--8--8--7--|
G|-----5h6--7--5h6--7--7---|-----5h6--7--7--7--7--7--|
D|-----5----7--5----7--7---|-----5----7--7--7--7--7--|
A|--0--0----0--0----0--0---|--0--0----0--------------|
E|-------------------------|-------------------------|

Guitar II
e|-------------------------|-------------------------|
B|-------------------------|-------------8--8--8--7--|
G|-----5h6--7--5h6--7--7---|-----5h6--7--7--7--7--7--|
D|-----5----7--5----7--7---|-----5----7--7--7--7--7--|
A|-----0----0--0----0--0---|-----0----0--------------|
E|-------------------------|-------------------------|

Guitar III
e|----------------------------------|-------------------------------------|
B|----------------------------------|-------------------------------------|
G|-----5h6-----7-----5h6-----7--7---|-----5h6-----7-----5--5--------------|
D|-----5h6-----7-----5h6-----7--7---|-----5h6-----7-----5--5--------------|
A|--0--0----0--0--0--0----0--0--0---|--0--0----0--0--0--3--3--5--5--6--7--|
E|----------------------------------|-------------------------3--3--4--5--|

Guitar I
e|--------------------------------|----------------------------------|
B|--------------------------------|-----------------13--13--13--12---|
G|-----10h11--12--10h11--12--12---|-----10h11--12---12--12--12--12---|
D|--0--10-----12--10-----12--12---|--0--10-----12---12--12--12--12---|
A|--------------------------------|----------------------------------|
E|--------------------------------|----------------------------------|

Guitar II
e|--------------------------------|----------------------------------|
B|--------------------------------|-----------------13--13--13--12---|
G|-----10h11--12--10h11--12--12---|-----10h11--12---12--12--12--12---|
D|-----10-----12--10-----12--12---|-----10-----12---12--12--12--12---|
A|--------------------------------|----------------------------------|
E|--------------------------------|----------------------------------|

Guitar III
e|----------------------------------|--------------------------------------|
B|-----5h6-----7-----5h6-----7--7---|-----5h6-----7-----5--5---------------|
G|-----5h6-----7-----5h6-----7--7---|-----5h6-----7-----5--5---------------|
D|--0--0----0--0--0--0----0--0--0---|--0--0----0--0--0--3--3---------------|
A|----------------------------------|-------------------------5--5--6--7---|
E|----------------------------------|-------------------------3--3--4--5---|

Guitar I
e|-------------------------|-------------------------------|
B|-------------------------|-------------------------------|
G|-----5h6--7--5h6--7--7---|-----5h6--7--5--5--------------|
D|-----5----7--5----7--7---|-----5----7--5--5--------------|
A|--0--0----0--0----0--0---|--0--0----0--3--3--5--5--6--2--|
E|-------------------------|-------------------3--3--4--0--|

Guitar II
e|-------------------------|-------------------------------|
B|-------------------------|-------------------------------|
G|-----5h6--7--5h6--7--7---|-----5h6--7--5--5--------------|
D|-----5----7--5----7--7---|-----5----7--5--5--------------|
A|-----0----0--0----0--0---|-----0----0--3--3--5--5--6--2--|
E|-------------------------|-------------------3--3--4--0--|

Guitar III
e|----------------------------------|-------------------------------------|
B|----------------------------------|-------------------------------------|
G|-----5h6-----7-----5h6-----7--7---|-----5h6-----7-----5--5--------------|
D|-----5h6-----7-----5h6-----7--7---|-----5h6-----7-----5--5--------------|
A|--0--0----0--0--0--0----0--0--0---|--0--0----0--0--0--3--3--5--5--6--2--|
E|----------------------------------|-------------------------3--3--4--0--|

First Chorus: First Half All Guitars
e|------------------------------------------------------------------|
B|--8--------8--------8--------8--------8--------8-----8--8--8--8---|
G|--7--------7--------7--------7--------7--------7-----7--7--7--7---|
D|--6--------6--------6--------6--------6--------6-----6--6--6--6---|
A|--7--------7--------7--------7--------7--------7-----7--7--7--7---|
E|-----0--0-----0--0-----0--0-----0--0-----0--0-----0---------------|

First Chorus: 2nd half Guitar I
e|-------------------------|---------------------------------|
B|-------------------------|---------------------------------|
G|-----5h6--7--5h6--7--7---|-----5h6--7----------------------|
D|-----5----7--5----7--7---|-----5----7---7--5---------------|
A|--0--0----0--0----0--0---|--0--0----0----------7--5--------|
E|-------------------------|---------------------------8--5--|

First Chorus: 2nd half  Guitar II
e|-------------------------|----------------------------------|
B|-------------------------|----------------------------------|
G|-----5h6--7--5h6--7--7---|-----5h6--7-----------------------|
D|-----5----7--5----7--7---|-----5----7---7--5----------------|
A|-----0----0--0----0--0---|-----0----0----------7--5---------|
E|-------------------------|----------------------------8--5--|

First Chorus: 2nd half Guitar III
e|----------------------------------|---------------------------------------|
B|----------------------------------|---------------------------------------|
G|-----5h6-----7-----5h6-----7--7---|-----5h6-----7------2--0---------------|
D|-----5h6-----7-----5h6-----7--7---|-----5h6-----7-------------2--0--------|
A|--0--0----0--0--0--0----0--0--0---|--0--0----0--0--0----------------3-----|
E|----------------------------------|------------------------------------5--|

Second Chorus: All Guitars
e|------------------------------------------|
B|--8--------8--------8--------8--------8---|
G|--7--------7--------7--------7--------7---|
D|--6--------6--------6--------6--------6---|
A|--7--------7--------7--------7--------7---|
E|-----0--0-----0--0-----0--0-----0--0------|

Solo: Guitar I and II
e|----------------------------------------------------------|
B|----------------------------------------------------------|
G|--5/7---5h7---5h7---5h7---5h7---5h7---5--5----------------|
D|--5/7---5h7---5h7---5h7---5h7---5h7---5--5------------2---|
A|--3/5---5-----5-----5-----5-----5-----3--3---5--5--6--0---|
E|---------------------------------------------3--3--4------|

e|---------------------------------------------------------|
B|---------------------------------------------------------|
G|--0h2---0h2---0h2---0h2---0h2---0h2---5--5---------------|
D|--0h2---0h2---0h2---0h2---0h2---0h2---5--5---------------|
A|--0-----0-----0-----0-----0-----0-----3--3--5--5--6--7---|
E|--------------------------------------------3--3--4--5---|

e|----------------------------------------------------------|
B|----------------------------------------------------------|
G|--5/7---5h7---5h7---5h7---5h7---5h7---5--5----------------|
D|--5/7---5h7---5h7---5h7---5h7---5h7---5--5------------2---|
A|--3/5---5-----5-----5-----5-----5-----3--3---5--5--6--0---|
E|---------------------------------------------3--3--4------|

e|---------------------------------------------------------|
B|---------------------------------------------------------|
G|--0h2---0h2---0h2---0h2---0h2---0h2---5--5---------------|
D|--0h2---0h2---0h2---0h2---0h2---0h2---5--5---------------|
A|--0-----0-----0-----0-----0-----0-----3--3--5--5--6--7---|
E|--------------------------------------------3--3--4--5---|

e|------------------------------------------------------------------|
B|--8--------8--------8--------8--------8--------8-----8--8--8--8---|
G|--7--------7--------7--------7--------7--------7-----7--7--7--7---|
D|--6--------6--------6--------6--------6--------6-----6--6--6--6---|
A|--7--------7--------7--------7--------7--------7-----7--7--7--7---|
E|-----0--0-----0--0-----0--0-----0--0-----0--0-----0---------------|

Guitar I
e|-------------------------|---------------------------------|
B|-------------------------|---------------------------------|
G|-----5h6--7--5h6--7--7---|-----5h6--7----------------------|
D|-----5----7--5----7--7---|-----5----7---7--5---------------|
A|--0--0----0--0----0--0---|--0--0----0----------7--5--------|
E|-------------------------|---------------------------8--5--|

Guitar II
e|----------------------------------|---------------------------------------|
B|----------------------------------|---------------------------------------|
G|-----5h6-----7-----5h6-----7--7---|-----5h6-----7------2--0---------------|
D|-----5h6-----7-----5h6-----7--7---|-----5h6-----7-------------2--0--------|
A|--0--0----0--0--0--0----0--0--0---|--0--0----0--0--0----------------3-----|
E|----------------------------------|------------------------------------5--|

Verse III: Guitar I
e|-------------------------|-------------------------------|
B|-------------------------|-------------------------------|
G|-----5h6--7--5h6--7--7---|-----5h6--7--5--5--------------|
D|-----5----7--5----7--7---|-----5----7--5--5--------------|
A|--0--0----0--0----0--0---|--0--0----0--3--3--5--5--6--7--|
E|-------------------------|-------------------3--3--4--5--|

 Verse III: Guitar II
e|-------------------------|-------------------------------|
B|-------------------------|-------------------------------|
G|-----5h6--7--5h6--7--7---|-----5h6--7--5--5--------------|
D|-----5----7--5----7--7---|-----5----7--5--5--------------|
A|-----0----0--0----0--0---|-----0----0--3--3--5--5--6--7--|
E|-------------------------|-------------------3--3--4--5--|

Verse III: Guitar III
e|----------------------------------|-------------------------------------|
B|----------------------------------|-------------------------------------|
G|-----5h6-----7-----5h6-----7--7---|-----5h6-----7-----5--5--------------|
D|-----5h6-----7-----5h6-----7--7---|-----5h6-----7-----5--5--------------|
A|--0--0----0--0--0--0----0--0--0---|--0--0----0--0--0--3--3--5--5--6--7--|
E|----------------------------------|-------------------------3--3--4--5--|

Guitar I
e|-------------------------|-------------------------|
B|-------------------------|-------------8--8--8--7--|
G|-----5h6--7--5h6--7--7---|-----5h6--7--7--7--7--7--|
D|-----5----7--5----7--7---|-----5----7--7--7--7--7--|
A|--0--0----0--0----0--0---|--0--0----0--------------|
E|-------------------------|-------------------------|

Guitar II
e|-------------------------|-------------------------|
B|-------------------------|-------------8--8--8--7--|
G|-----5h6--7--5h6--7--7---|-----5h6--7--7--7--7--7--|
D|-----5----7--5----7--7---|-----5----7--7--7--7--7--|
A|-----0----0--0----0--0---|-----0----0--------------|
E|-------------------------|-------------------------|

Guitar III
e|----------------------------------|-------------------------------------|
B|----------------------------------|-------------------------------------|
G|-----5h6-----7-----5h6-----7--7---|-----5h6-----7-----5--5--------------|
D|-----5h6-----7-----5h6-----7--7---|-----5h6-----7-----5--5--------------|
A|--0--0----0--0--0--0----0--0--0---|--0--0----0--0--0--3--3--5--5--6--7--|
E|----------------------------------|-------------------------3--3--4--5--|

Guitar I
e|--------------------------------|----------------------------------|
B|--------------------------------|-----------------13--13--13--12---|
G|-----10h11--12--10h11--12--12---|-----10h11--12---12--12--12--12---|
D|--0--10-----12--10-----12--12---|--0--10-----12---12--12--12--12---|
A|--------------------------------|----------------------------------|
E|--------------------------------|----------------------------------|

Guitar II
e|--------------------------------|----------------------------------|
B|--------------------------------|-----------------13--13--13--12---|
G|-----10h11--12--10h11--12--12---|-----10h11--12---12--12--12--12---|
D|-----10-----12--10-----12--12---|-----10-----12---12--12--12--12---|
A|--------------------------------|----------------------------------|
E|--------------------------------|----------------------------------|

Guitar III
e|----------------------------------|--------------------------------------|
B|-----5h6-----7-----5h6-----7--7---|-----5h6-----7-----5--5---------------|
G|-----5h6-----7-----5h6-----7--7---|-----5h6-----7-----5--5---------------|
D|--0--0----0--0--0--0----0--0--0---|--0--0----0--0--0--3--3---------------|
A|----------------------------------|-------------------------5--5--6--7---|
E|----------------------------------|-------------------------3--3--4--5---|

Guitar I
e|-------------------------|-------------------------------|
B|-------------------------|-------------------------------|
G|-----5h6--7--5h6--7--7---|-----5h6--7--5--5--------------|
D|-----5----7--5----7--7---|-----5----7--5--5--------------|
A|--0--0----0--0----0--0---|--0--0----0--3--3--5--5--6--2--|
E|-------------------------|-------------------3--3--4--0--|

Guitar II
e|-------------------------|-------------------------------|
B|-------------------------|-------------------------------|
G|-----5h6--7--5h6--7--7---|-----5h6--7--5--5--------------|
D|-----5----7--5----7--7---|-----5----7--5--5--------------|
A|-----0----0--0----0--0---|-----0----0--3--3--5--5--6--2--|
E|-------------------------|-------------------3--3--4--0--|

Guitar III
e|----------------------------------|-------------------------------------|
B|----------------------------------|-------------------------------------|
G|-----5h6-----7-----5h6-----7--7---|-----5h6-----7-----5--5--------------|
D|-----5h6-----7-----5h6-----7--7---|-----5h6-----7-----5--5--------------|
A|--0--0----0--0--0--0----0--0--0---|--0--0----0--0--0--3--3--5--5--6--2--|
E|----------------------------------|-------------------------3--3--4--0--|

Third Chorus Play twice: First Half All Guitars
e|------------------------------------------------------------------|
B|--8--------8--------8--------8--------8--------8-----8--8--8--8---|
G|--7--------7--------7--------7--------7--------7-----7--7--7--7---|
D|--6--------6--------6--------6--------6--------6-----6--6--6--6---|
A|--7--------7--------7--------7--------7--------7-----7--7--7--7---|
E|-----0--0-----0--0-----0--0-----0--0-----0--0-----0---------------|

Third Chorus play twice: 2nd half Guitar I
(* leave out A second time through)
e|-------------------------|----------------------------------|
B|-------------------------|----------------------------------|
G|-----5h6--7--5h6--7--7---|-----5h6--7-----------------------|
D|-----5----7--5----7--7---|-----5----7---7--5----------------|
A|--0--0----0--0----0--0---|--0--0----0----------7--5---------|
E|-------------------------|---------------------------8--5*--|

Third Chorus play twice: 2nd half  Guitar II
(* leave out run second time through go straight to Outro Harmony)
e|-------------------------|-------------------------------------|
B|-------------------------|-------------------------------------|
G|-----5h6--7--5h6--7--7---|-----5h6--7--------------------------|
D|-----5----7--5----7--7---|-----5----7---7*--5*-----------------|
A|-----0----0--0----0--0---|-----0----0----------7*--5*----------|
E|-------------------------|----------------------------8*--5*---|

Third Chorus play twice: 2nd half Guitar III
(* leave out A second time through)
e|----------------------------------|----------------------------------------|
B|----------------------------------|----------------------------------------|
G|-----5h6-----7-----5h6-----7--7---|-----5h6-----7------2--0----------------|
D|-----5h6-----7-----5h6-----7--7---|-----5h6-----7-------------2--0---------|
A|--0--0----0--0--0--0----0--0--0---|--0--0----0--0--0----------------3------|
E|----------------------------------|------------------------------------5*--|

Outro: Guitar I 
e|-------------------------------------|
B|-------------------------------------|
G|-------------------------------------|
D|--7--5------------7--5---------------|
A|--------7--5------------7--5-----0---|
E|--------------8---------------8------|

Outro Harmony: Guitar II
e|-------------------------------------------------------------------|
B|--10--8---------------10--8----------------10--8-------------------|
G|----------9--7----------------9--7-----------------9--7------------|
D|-----------------10------------------10-------------------10-------|
A|---------------------------------------------------------------0---|
E|-------------------------------------------------------------------|

Outro: Guitar III
e|-----------------------------------------|
B|-----------------------------------------|
G|--2--0--------------2--0-----------------|
D|---------2--0--------------2--0----------|
A|----------------3-----------------3--0---|
E|-----------------------------------------|

Only one guitar
e|-------------------------|--------------|
B|-------------------------|--------------|
G|-----5h6--7--5h6--7--7---|-----5h6--7---|
D|-----5----7--5----7--7---|--2--5----7---|
A|--0--0----0--0----0--0---|--0--0----0---|
E|-------------------------|--------------|

Guitar I and II
e|----------------------|
B|----------------------|
G|----------------------|
D|--7--5------------2---|
A|--------7--5------0---|
E|--------------8-------|

Guitar III
e|-----------------------|
B|-----------------------|
G|--2--0-----------------|
D|---------2--0------2---|
A|----------------3--0---|
E|-----------------------|

1st Solo
e|--------------------------------------------------------|
B|-------5-8-------5-8-------5-8-------5-8-------5-8------|
G|--7fb-------7fb-------7fb-------7fb-------7fb-----------|
D|--------------------------------------------------------|
A|--------------------------------------------------------|
E|--------------------------------------------------------|

e|-------------------------------------------------------------------|
B|--8----8----8----8----8----8----8----8----8------------------------|
G|--7pb--7pb--7pb--7pb--7pb--7pb--7pb--7pb--7pbr--5-----5-----5--5---|
D|---------------------------------------------------7-----7---------|
A|-------------------------------------------------------------------|
E|-------------------------------------------------------------------|

e|-----------------------5------------|-0--5--8p5--------------------------|
B|--------------------------8p5--8fb--|------------8--8p5------------------|
G|---------------5--7fb---------------|--------------------7--7br--5-----5-|
D|--7--5--7--7------------------------|-------------------------------7----|
A|------------------------------------|------------------------------------|
E|------------------------------------|------------------------------------|
-
e|---------------------|
B|---------------------|
G|---------------------|
D|--7--5-----------7---|
A|--------7--5--3------|
E|---------------------|

1st & 3rd Fill
e|--------------------|
B|-7------------------|
G|---7br-br-b-----7---|
D|-------------7------|
A|--------------------|
E|--------------------|

2nd & 4th Fill
e|----------------------------|
B|----------------------------|
G|---7fb--7fb--7fbr-----------|
D|---------------------7------|
A|------------------------7---|
E|----------------------------|

Main Solo
e|----------------------------------------------------------------|
B|--13fb--13br--10--13fb--13br--10--------------------------------|
G|----------------------------------12br--10--12--10--------------|
D|----------------------------------------------------12--10--12--|
A|----------------------------------------------------------------|
E|----------------------------------------------------------------|

e|------------------------------------------------------------------------|
B|---------------------8---------------------------7----------------------|
G|--5---------------5--7br--5--------5--7br--5------------5--5------------|
D|-----7--5--7--7--------------7--7-------------7-----7---------7--5--7---|
A|------------------------------------------------------------------------|
E|------------------------------------------------------------------------|

e|------13br-13-10-----------------------------------------------------------|
B|-13fb------------13fb-13br-13-10-------------------------------------------|
G|---------------------------------12br-10-12-12fb-12hb-12hb-12hb-12hb-12hb--|
D|---------------------------------------------------------------------------|
A|---------------------------------------------------------------------------|
E|---------------------------------------------------------------------------|

e|------------------------------------------------------------------------|
B|--------------------5--8--5-----5--5--5---------------------------------|
G|--12hb--5-----------5-----5-----5--5--5-----------------5--7br-5--------|
D|-----------7--5--7-----------7-----------7--5--7--7--7------------7--7--|
A|------------------------------------------------------------------------|
E|------------------------------------------------------------------------|

e|---------------------------------------------------------------------------|
B|--15fb--15fb--15br--15--15fb--15fb--15fb--^15fbr--12-----------------------|
G|-----------------------------------------------------14fbr--12--14--12-----|
D|---------------------------------------------------------------------------|
A|---------------------------------------------------------------------------|
E|---------------------------------------------------------------------------|

e|--15fb--15fb--15fb--15--15fb--|
B|------------------------------|
G|------------------------------|
D|------------------------------|
A|------------------------------|
E|------------------------------|

************************************

| /   slide up
| \   slide down
| h   hammer-on
| p   pull-off
| ~   vibrato
| +   harmonic
| x   Mute note
| bf  Full Bend
| pfb  Pre-bend
| bfr  Bend release
| pfbr Pre-bend release
| bfrb Bend release bend
| hb   Hold bend
|^     Pinch harmonic
************************************

1st Verse

A      C       D   A      C   D      A    C       D    C   E G Ab A
  Well,I remember when I met you baby back along time ago

A       C         D      A       C    D    A    C           D           G D
  Well, you were telling me you loved me how much you just didn't know

D        F       G     D         F        G     
  Well, now you say that you got news for me

D        F   G   F    G      D      F   G  C G
  Well, I know that it's the hurting kind

A       C      D    A        C   D  A      C               D   E G Ab E
  Well, I know your gonna tell me baby you could never be mine

Chorus
E        E9  E    E9   E      E9   E    E9    E      E9   E9
And you keep on screaming at me as I'm going out the door

A      C         D    A  C D  A     C           D    N.C.
  Respect me in the morning don't love you know more

2nd Verse 

A        C          D        A        C    D    A     C          D   E G Ab A
 Well, I've been coming here loving you baby seven long nights a week

A       C     D  A    C    D  A      C        D     C        D     G D
  But every time I leave you you're right back out on the streets

D     F      G    D     F     G     D  F   G
  And you been saying you've been true to me 

D     F       G     D      F        G    C G
  my friends say you're telling me lies

 A    C       D    A       C           D 
  And if you don't straighten up your act 

A     C         D    A    C     D    C   E G Ab E
  I think I'm going to blacken your eyes

2nd Chorus

E          E9   E     E9   E  E9 N.C.
  And you keep on screaming at me as I'm going out the door

Solo

C D C D C D C D C D C D C C E G Ab A

G A G A G A G A G A G A G A A G C C E G Ab A

C D C D C D C D C D C D C C E G Ab A

G A G A G A G A G A G A G A A G C C E G Ab A

E E9 E E9 E E9 E E9

A C D A C D A C D N.C.

3rd Chorus

A      C       D   A      C   D      A    C       D    C   E G Ab A
  Well,I remember when I met you baby back along time ago

A       C         D      A       C    D    A    C           D       G D
   You were telling me you loved me how much you just didn't know

D      F       G     D         F        G     
  But now you say that you got news for me

D        F   G   F    G      D      F   G  C G
  Well, I know that it's the hurting kind

A       C      D    A        C   D  A      C               D   E G Ab E
  Well, I know your gonna tell me baby you could never be mine

Chorus
E        E9  E    E9   E      E9   E    E9    E      E9   E9
And you keep on screaming at me as I'm going out the door

A      C        D    A  C D  
  Respect me in the morning 

A     C     D    A     C      D   N.C.
  Or dont come round here no more

E        E9  E    E9   E      E9   E    E9    E      E9   E9
And you keep on screaming at me as I'm going out the door

A      C        D    A  C D  
  Respect me in the morning 

A     C     D    A     C      D   N.C.
  Or dont come round here no more



            
            
Suggest correction
Creating personal tab
Creating personal tab
You can edit any tab online and save it as your Personal.

You can edit, replace or remove any tab part or add personal notes – all changes will be seen only by you.

Personal tabs can be accessed anytime from any device, even offline.
Learn more »
Give kudos to tab author, rate the tab!
1 2 3 4 5
comments
print report bad tab
guest
You may want to rate the tab now too:
select rating
Wanna post a correction for this tab? Suggest correction