Oops, an error
Loading. Please wait.

Chinga Tu Madre bass

version 1
version 1

Whole song

Interactive

by Molotov
20,326 views 27 this week
2 commentsread comments
1 2 3 4 5
x 3
add to favorites
×
Save as Personal and add changes to this tab that will be seen only by you. Learn more ›
×
You can save this tab as Personal to edit and correct it or add notes. All changes will be seen only by you. Learn more »
launch autoscroll
font size
0
reset
guitar tuner
edit
Autoscroll
slow
fast
+/-
esc
set tempo
stop
Author
Unregistered
Molotov
Chinga tu Madre
Donde Jugaran las Niñas?
Tabbed By: Irwin Alvarado
BassTabArchive Army member
iab250@prodigy.net.mx

This song is very easy to play, (if you have 2 bass guitars)I'm only putting 
what both are playing at the same time..

 [Intro]
G|---------------------|       |---------------3----|
D|-----0-4-4-4-4-0-2--0|       |----0-4-4-4-4-----4-|
A|---------------------|       |--------------------|
E|-0h2-----------------|X5 then|-2------------------|

 [Verse]
G|----------------|
D|*---4----------*|
A|*-----------0h2*|
E|-2------2-2-----| Repeat as needed

 [Chorus]
G|---------------------|
D|-----0-4-4-4-4-0-2--0|
A|---------------------|
E|-0h2-----------------|x5

 [Verse]
G|----------------|
D|*---4----------*|
A|*-----------0h2*|
E|-2------2-2-----| Repeat as needed

 [Chorus]
G|---------------------|
D|-----0-4-4-4-4-0-2--0|
A|---------------------|
E|-0h2-----------------|x5

[Verse 3] No bass. 

 [Verse 4]
G|----------------|
D|*---4----------*|
A|*-----------0h2*|
E|-2------2-2-----| Repeat as needed

 [Bridge]
 Slap:
G|--------------------|
D|---4-2-----0--------|
A|-------4-2---2-0h2-0|
E|-2------------------|

 [Chorus]
G|---------------------|
D|-----0-4-4-4-4-0-2--0|
A|---------------------|
E|-0h2-----------------|x5

************************************

| h  Hammer-on

************************************

            
            
Suggest correction
Creating personal tab
Creating personal tab
You can edit any tab online and save it as your Personal.

You can edit, replace or remove any tab part or add personal notes – all changes will be seen only by you.

Personal tabs can be accessed anytime from any device, even offline.
Learn more »
Give kudos to tab author, rate the tab!
1 2 3 4 5
comments
print report bad tab
2 comments total.
0 reply
Daniel182col 285 Jul 22, 2004 08:00 PM

whatever!

0 reply
JCMetalBass 30 Mar 14, 2009 06:04 PM

this tab is wrong >:0

guest
Wanna post a correction for this tab? Suggest correction