Oops, an error
Loading. Please wait.

Danger Cant bass

1,669 views 45 this week
2 commentsread comments
1 2 3 4 5
x 5
add to favorites
×
Save as Personal and add changes to this tab that will be seen only by you. Learn more ›
×
You can save this tab as Personal to edit and correct it or add notes. All changes will be seen only by you. Learn more »
launch autoscroll
font size
0
reset
guitar tuner
edit
Autoscroll
slow
fast
+/-
esc
set tempo
stop
About this tab version
It's the first tab for this song that is up on the site. Was this info helpful? Yes No
[Intro]

G|-----------------------------|
D|-----------------------------|
A|-----------------------------| X8
E|-1-1-1--4-4--4--4--4--4--4---|

[Verse]

G|-----------------------------|
D|-----------------------------|
A|-4-4-4-----------------------| X8
E|--------4-4--4--4--4--4--4---|

[Chorus] X2

G|-------------------------------------------------------------------|
D|-------------------------------------------------------------------|
A|---------------------------------------4-4-4-4-4-4-4-4-4-4-4-4-4---|
E|-1-1-1-4-4-4-4-4-4-4-4-4-4-4-4-4-1-1-1-----------------------------|

G|-------------------------------------------------------------------|
D|-------------------------------------------------------------------|
A|-------8-8-8-8-8-8-8-8-8-8-8-8-8-------4-4-4-4-4-4-4-4-4-4-4-4-4---|
E|-1-1-1---------------------------1-1-1-----------------------------|

[Verse]

G|-----------------------------|
D|-----------------------------|
A|-4-4-4-----------------------| X8
E|--------4-4--4--4--4--4--4---|

[Second Chorus] X2

G|-------------------------------------------------------------------|
D|-------------------------------------------------------------------|
A|---------------------------------------4-4-4-4-4-4-4-4-4-4-4-4-4---|
E|-1-1-1-4-4-4-4-4-4-4-4-4-4-4-4-4-1-1-1-----------------------------|

G|-------------------------------------------------------------------|
D|-------------------------------------------------------------------|
A|-------8-8-8-8-8-8-8-8-8-8-8-8-8-------4-4-4-4-4-4-4-4-4-4-4-4-4---|
E|-1-1-1---------------------------1-1-1-----------------------------|

[Bridge]

G|------------------------------------------------------------------|
D|------------------------------------------------------------------|
A|-----------------4-4-4-4-4-4-4-4-8-8-8-8-8-8-8-8-4-4-4-4-4-4-4-4--|
E|-4-4-4-4-4-4-4-4--------------------------------------------------|

[Outro]

G|------------------------------------------------------------------|
D|------------------------------------------------------------------|
A|-----------------4-4-4-4-4-4-4-4-8-8-8-8-8-8-8-8-4-4-4-4-4-4-4-4--|
E|-4-4-4-4-4-4-4-4--------------------------------------------------|

G|------------------------------------------------------------------|
D|------------------------------------------------------------------|
A|-------------------------------------------------4-4-4-4-4-4-4-4--|
E|-4-4-4-4-4-4-4-4-3-3-3-3-3-3-3-3-1-1-1-1-1-1-1-1------------------|

G|------------------------------------------------------------------|
D|------------------------------------------------------------------|
A|-------------------------------------------------4-4-4-4-4-4-4-4--|
E|-4-4-4-4-4-4-4-4-3-3-3-3-3-3-3-3-1-1-1-1-1-1-1-1------------------|


(they actually aren't straight 8th notes during the outro, there is a really weird and specific rhythm 
 but it's hard to tab just listen to the song and play along, you'll get the hang of it!!!)


            
            
Suggest correction
Creating personal tab
Creating personal tab
You can edit any tab online and save it as your Personal.

You can edit, replace or remove any tab part or add personal notes – all changes will be seen only by you.

Personal tabs can be accessed anytime from any device, even offline.
Learn more »
comments
print report bad tab
2 comments total.
0 reply
spencerconley123 10 Jun 13, 2017 05:49 PM

It's great! I think there should be one more measure of the outro however. Thank you so much!

0 reply
CurtisIsARocker 64 Jul 06, 2017 12:23 AM

Actually no, the outro is only three measures, play along to the song and you'll notice.

guest
You may want to rate the tab now too:
select rating
Wanna post a correction for this tab? Suggest correction