Oops, an error
Loading. Please wait.

Death Cup tab

version 1
version 1

Whole song

  • Tried to tab from live little elephant video.
5,857 views 96 this week
3 commentsread comments
1 2 3 4 5
x 6
add to favorites
×
Save as Personal and add changes to this tab that will be seen only by you. Learn more ›
×
You can save this tab as Personal to edit and correct it or add notes. All changes will be seen only by you. Learn more »
launch autoscroll
font size
0
reset
how to read this tab
guitar tuner
edit
Autoscroll
slow
fast
+/-
esc
set tempo
stop
CAPO 

Tuning: half step down (Eb,Ab,Db,Gb,Bb,eb)

[Intro/verse]
eb|----0-------------------0-------------1----------|
Bb|------2---—---------------2----------3--2--------|
Gb|---2-2-2-2/4\2—(x2)----2-2-2-2/4\2--2--2-2-2/4\2-|
Db|--2-------------------0------------0-------------|
Ab|-0-----------------------------------------------|
Eb|-------------------------------------------------|

eb|----0-------------------0------------------------|
Bb|------2---—---------------2----------------------|
Gb|---2-2-2-2/4\2—(x2)----2-2-2-2/4\2-(x2)----------|
Db|--2-------------------0--------------------------|
Ab|-0-----------------------------------------------|
Eb|-------------------------------------------------|

[End of verse 1]
eb|----0--------------------0-----------1--------------|
Bb|------2---—----------------2---------3--------------|
Gb|---2-2-2-2/4\2—(x2)----2--2-2-2/4\2--2-(x12?)-------|
Db|--2-------------------0-0------------0--------------|
Ab|-0--------------------------------------------------|
Eb|----------------------------------------------------|

[Chorus 1, 2, & 4]
eb|-0-0-0--0-0-0--0-0-0--1-1-1--1-1-1------------------|
Bb|-2-2-2--2-2-2--2-2-2--3-3-3--3-3-3------------------|
Gb|-2-2-2--2-2-2--2-2-2--2-2-2--2-2-2------------------|
Db|-2-2-2--2-2-2--0-0-0--0-0-0--0-0-0------------------|
Ab|-0-0-0--0-0-0---------------------------------------|
Eb|----------------------------------------------------|

[Chorus 3]
eb|-0-0-0----0-0-0--1-1-1--1-1-1------------------|
Bb|-1-1-1----1-1-1--2-2-2--2-2-2------------------|
Gb|-2-2-2----2-2-2--2-2-2--2-2-2------------------|
Db|-2-2-2----0-0-0--0-0-0--0-0-0------------------|
Ab|-0-0-0-----------------------------------------|
Eb|-----------------------------------------------|

[End of Chorus 3]
eb|-0-0-0----2-----0------0------2----------------|
Bb|-2-2-2----2-----0------2------0----------------|
Gb|-2-2-2----2-(x6)1—(x6)-2-(x7)-1----------------|
Db|-2-2-2----0-----2------0------2----------------|
Ab|-0-0-0-----------------------------------------|
Eb|-----------------------------------------------|

[Bridge]
Guitar 1
eb|-------12-----------------------------12-10--9-7------------|
Bb|---14------14--------------------14---14-12-10-9------------|
Gb|-14--14--14--14-14/16\14-(x2)--14--14-----------------------|
Db|------------------------------------------------------------|
Ab|------------------------------------------------------------|
Eb|------------------------------------------------------------|

eb|-------8----------------------------------------------------|
Bb|---10-----10------------------------------------------------|
Gb|-10--10-10--10-10/12\10-(x4)--------------------------------|
Db|------------------------------------------------------------|
Ab|------------------------------------------------------------|
Eb|------------------------------------------------------------|

Guitar 2
eb|-0-------0-------0-0-0---------0-0-0--2-2-2-----------------------|
Bb|-2-------2-------2-2-2--2-2-2--2-2-2--0-0-0-----------------------|
Gb|-2-(x12)-2-(x12)-2-2-2--2-2-2--2-2-2--1-1-1-----------------------|
Db|-2-------0-------x-x-x--2-2-2--0-0-0--2-2-2-----------------------|
Ab|-0---------------2-2-2--4-4-4-------------------------------------|
Eb|------------------------------------------------------------------|

Bb|-0-------0--------------------------------------------------------|
Gb|-2-------2--------------------------------------------------------|
Db|-2-(x12)-2-(x12)--------------------------------------------------|
Ab|-2-------0--------4------6-------7------9-------------------------|
Eb|-0----------------4-(x6)-7-(x6)--7-(x6)-9-(x6)--------------------|
eb|------------------2------4-------5------7-------------------------|

[ORDER]
[Intro]
[Verse]
[Chorus 1]
[Verse]
[Chorus]
[Interlude] (chorus 1 chords w/ verse/intro riff)
[Chorus 2]
[Bridge]
[Chorus 4]

************************************

| x    Dead note
| h    Hammer-on
| p    Pull-off
| /    Slide up
| (n)  Ghost note

************************************

            
            
Suggest correction
Creating personal tab
Creating personal tab
You can edit any tab online and save it as your Personal.

You can edit, replace or remove any tab part or add personal notes – all changes will be seen only by you.

Personal tabs can be accessed anytime from any device, even offline.
Learn more »
comments
print report bad tab
3 comments total.
0 reply
CurtisIsARocker 64 Jan 25, 2017 11:32 PM

This is all right, but he plays it in standard with a capo on the first.

0 reply
arthuralves0001 10 Mar 07, 2017 04:20 PM, edited at 09:20 pm

he must have it one step down, so capo on 1st to make it half a step down. Sounds pretty accurate on my guitar exactly like this.

+3 reply
CurtisIsARocker 64 Mar 07, 2017 11:19 PM

No he plays it in standard tuning with a capo on the first, and instead of an X02220 Shape he uses a 355433 shape. Trust me, you can watch live videos of it.

guest
You may want to rate the tab now too:
select rating
Wanna post a correction for this tab? Suggest correction