Oops, an error
Loading. Please wait.

Start Angy End Mad tab

by Moneen
1,606 views 1 this week
1 commentread comment
1 2 3 4 5
x 3
add to favorites
×
Save as Personal and add changes to this tab that will be seen only by you. Learn more ›
×
You can save this tab as Personal to edit and correct it or add notes. All changes will be seen only by you. Learn more »
launch autoscroll
font size
0
reset
how to read this tab
guitar tuner
edit
Autoscroll
slow
fast
+/-
esc
set tempo
stop
Author
Start Angy...end Mad
Tabbed by: Alan Bracewell
Email: kadence@gmail.com

Tuning:Standard

Intro:
Guitar 1
e|---------------------------------------------------------------------------|
B|-----------------10--12-------------------10--12--10-----------------------|
G|--11--12-------------------11--12--------------------------------x2--------|
D|----------9--10--------------------9--10-----------------------------------|
A|---------------------------------------------------------------------------|
E|---------------------------------------------------------------------------|
Guitar 2: Plays 3rd fret E string on the first note

Guitar 1               (a little off, any suggestions?)
e|------------------------10------------------10------------------10---------|
B|----------------10--12--------------10--12--------------10--12-------------|
G|--12------------------------11--12--------------11--12--------------x4---12|
D|--12-----------------------------------------------------------------------|
A|--10-----------------------------------------------------------------------|
E|---------------------------------------------------------------------------|
Guitar 2
e|---------------------------------------------------------------------------|
B|---------------------------------------------------------------------------|
G|------4---7----------------------------------------------------------------|
D|--5---4---7----x8----------------------------------------------------------|
A|--5---2---5----------------------------------------------------------------|
E|--3------------------------------------------------------------------------|

Guitar 1
e|---------------------------------------------------------------------------|
B|-----------------10--12-------------------10--12---------------------------|
G|--11--12-------------------11--12-------------------x4---------------------|
D|----------9--10--------------------9--10-----------------------------------|
A|---------------------------------------------------------------------------|
E|---------------------------------------------------------------------------|
Guitar 2 (Guitar 2 is tabbed relative to guitar 1 here)
e|---------------------------------------------------------------------------|
B|---------------------------------------------------------------------------|
G|---------------------------------------------------------------------------|
D|--5---------7------------9----------10---------------------x4--------------|
A|--5---------7------------9----------10-------------------------------------|
E|--3---------5------------7----------8--------------------------------------|
   

Verse:
Guitar 2 (or both) (Screw you and die...)
e|---------------------------------------------------------------------------|
B|---------------------------------------------------------------------------|
G|------------4----7----4----------------------------------------------------|
D|--5---------4----7----4------------------x4--------------------------------|
A|--5---------2----5----2----------------------------------------------------|
E|--3------------------------------------------------------------------------|

(Die! Die! Die!)
e|--------|
B|--------|
G|--------|
D|---5----|
A|---5----|
E|---3----|

Both guitars (Honesty makes you do...)
e|---------------------------------------------------------------------------|
B|---------------------------------------------------------------------------|
G|---------------------------------------------------------------------------|
D|--5----7----9----12----12----10----9----7----------------------------------|
A|--5----7----9----12----12----10----9----7----------------------------------|
E|--3----5----7----10----10----8-----7----5----------------------------------|
        xxxxxxxxxxxxxxxxxxxxxxxxxxxxxxxxxxxx

Chorus: (say it...)
Guitar 1
e|---------------------------------------------------------------------------|
B|-----------------10--12-------------------10--12---------------------------|
G|--11--12-------------------11--12-------------------x4---------------------|
D|----------9--10--------------------9--10-----------------------------------|
A|---------------------------------------------------------------------------|
E|---------------------------------------------------------------------------|
GUitar 2
e|---------------------------------------------------------------------------|
B|---------------------------------------------------------------------------|
G|---------------------------------------------------------------------------|
D|--5---------7------------9----------10---------------------x4--------------|
A|--5---------7------------9----------10-------------------------------------|
E|--3---------5------------7----------8--------------------------------------|


Interlude:
e|--------|
B|--------|
G|--------|
D|---5----|
A|---5----|
E|---3----|

Guitar 1 repeats this      | It then changes to: (continues until 3:50)
e|----2--------------------|----------5--------------------------------------|
B|------3------------------|------------3------------------------------------|
G|--------4----------------|--------------4----------------------------------|
D|----------5--------x24---|----------------5--------------------------------|
A|-------------------------|-------------------------------------------------|
E|-------------------------|-------------------------------------------------|
 Guitar 2 (comes in after guitar 1's first part)
e|------------------|--------------------------------------------------------|
B|------------------|--------------------------------------------------------|
G|------------------|----------------12--------------------------------------|
D|---5------xabunch-|--55/77/99/1212-12--------------------------------------|
A|---5--------------|--55/77/99/1212-10--------------------------------------|
E|---3--------------|--33/55/77/1010-----------------------------------------|


Bridge:?
Gutiar 2 continued: (2 years is a long time to pretend!) just jumps between 2 chords
e|---------------------------------------------------------------------------|
B|---------------------------------------------------------------------------|
G|----------4----------------------------------------------------------------|
D|----5-----4----------------------------------------------------------------|
A|----5-----2----------------------------------------------------------------|
E|----3----------------------------------------------------------------------|

Chorus type thing: (3:50)
Guitar 2
e|---------------------------------------------------------------------------|
B|---------------------------------------------------------------------------|
G|------------4----7----4----------------------------------------------------|
D|--5---------4----7----4------------------x4--------------------------------|
A|--5---------2----5----2----------------------------------------------------|
E|--3------------------------------------------------------------------------|
Guitar 1
e|-----------------------10--------------------------------------------------|
B|---------------10--12------12--13--10/12\10--------------------------------|
G|--10--12-------------------------------------------------------------------|
D|---------9--10------------------------------------x4-----------------------|
A|---------------------------------------------------------------------------|
E|---------------------------------------------------------------------------|

Outro:
Guitar 2 random effects on this chord
e|--------|
B|--------|
G|--------|
D|---5----|
A|---5----|
E|---3----|
Guitar 1
Repeats till end
e|----2----------|
B|------3--------|
G|--------4------|
D|----------5----|
A|---------------|
E|---------------|


| /  slide up
| \  slide down
| h  hammer-on
| p  pull-off
| ~  vibrato
| +  harmonic
| x  Mute note
===============================================================================
Ok well thats pretty much it. There are quite a few random chords being played in there,
but it would be pretty hard to tab out.  Anyways, thats the best I can do, if you have
any corrections feel free to e-mail me. I probably got guitar 1 and 2 mixed up a bit,
but when they play the song live, they loop some of the picking, so be aware of that.

            
            
Suggest correction
Creating personal tab
Creating personal tab
You can edit any tab online and save it as your Personal.

You can edit, replace or remove any tab part or add personal notes – all changes will be seen only by you.

Personal tabs can be accessed anytime from any device, even offline.
Learn more »
Give kudos to tab author, rate the tab!
1 2 3 4 5
comments
print report bad tab
1 comment total.
0 reply
cameron.hare 10 Sep 01, 2008 04:07 PM

the intro lead riff is like this:

e|-------10------------------10---------------10-----------------------------|
B|-10-12------------12-10-12------------10-12---------X3---------------------|
G|----------9-11-12-------------9-11-12--------------------------------------|
D|---------------------------------------------------------------------------|
A|---------------------------------------------------------------------------|
E|---------------------------------------------------------------------------|

then this for the last time:

e|-------10------------------10------------10-10-10\------------------------------|
B|-10-12------------12-10-12------------12-----------------------------------|
G|----------9-11-12-------------9-11-12--------------------------------------|
D|---------------------------------------------------------------------------|
A|---------------------------------------------------------------------------|
E|---------------------------------------------------------------------------|

guest
You may want to rate the tab now too:
select rating
Wanna post a correction for this tab? Suggest correction