Oops, an error
Loading. Please wait.

For Saviours intro tab

28 views 3 this week
no commentswrite comment
1 2 3 4 5
2 more votes to show rating
add to favorites
×
Save as Personal and add changes to this tab that will be seen only by you. Learn more ›
×
You can save this tab as Personal to edit and correct it or add notes. All changes will be seen only by you. Learn more »
launch autoscroll
font size
0
reset
how to read this tab
guitar tuner
edit
Autoscroll
slow
fast
+/-
esc
set tempo
stop
About this tab version
I have guessed from the chords she uses live as well as sound. Whats not to love??????? Was this info helpful? Yes No
Will have whole song soon! 
Capo on 2nd!
You will need two chords positions, the song main riff/intro is based around these

Chord one:      Chord two:
e|---3----|     e|---3----|
B|---3----|     B|---3----|
G|---0----|     G|---0----|
D|---0----|     D|---0----|
A|---2----|     A|---0----|
E|---3----|     E|---1----|

[Main riff/intro]
((let ring))
e|----------------------3----|
B|-------3-------3-----(3)---|
G|-------0-------0----0------|(x2)
D|-------0-0----0----0-------|
A|---0h2-----0h2---2---------|
E|--3------------------------|

((let ring))
e|------3--------------------|
B|------3-------3----3-------|
G|-----0-0-----0----0--------|(x1)
D|----0----------------------|
A|---------------------------|
E|--1---------1----1---------|

Repeat until you get bored and decide to give "The Riverbank" by Monica Heldal a listen

************************************

| (n)  Ghost note
| h    Hammer-on

************************************

            
            
Suggest correction
Creating personal tab
Creating personal tab
You can edit any tab online and save it as your Personal.

You can edit, replace or remove any tab part or add personal notes – all changes will be seen only by you.

Personal tabs can be accessed anytime from any device, even offline.
Learn more »
Give kudos to tab author, rate the tab!
1 2 3 4 5
comments
print report bad tab
guest
Wanna post a correction for this tab? Suggest correction