Oops, an error
Loading. Please wait.

Guitar Hero tab

version 1
version 1

Whole song

Interactive

5,685 views 1 this week
5 commentsread comments
1 2 3 4 5
x 6
add to favorites
×
Save as Personal and add changes to this tab that will be seen only by you. Learn more ›
×
You can save this tab as Personal to edit and correct it or add notes. All changes will be seen only by you. Learn more »
launch autoscroll
font size
0
reset
how to read this tab
guitar tuner
edit
Autoscroll
slow
fast
+/-
esc
set tempo
stop
Author
Difficulty
e|----------------------------------------------------------|
B|----------------------------------------------------------|
G|---------------7-7----------------------------------------|x3
D|-4-4-4-4-4-4-7-7-7-7-9-2----------------------------------|
A|-4-4-4-4-4-4-7-5-5-7-9-2----------------------------------|
E|-2-2-2-2-2-2-5-----5-7-0----------------------------------|

E-----------------------------------------------------------|
B-----------------------------------------------------------|
G-7-----9---------------------------------------------------|
D-7-x16-9-x16-----------------------------------------------|
A-5-----7---------------------------------------------------|
E-----------------------------------------------------------|

e|----------------------------------------------------------|
B|----------------------------------------------------------|
G|---------------7-7----------------------------------------|x a few 
D|-4-4-4-4-4-4-7-7-7-7-9-2----------------------------------|
A|-4-4-4-4-4-4-7-5-5-7-9-2----------------------------------|
E|-2-2-2-2-2-2-5-----5-7-0----------------------------------|

E-----------------------------------------------------------|
B-----------------------------------------------------------|
G-----------------------------------------------------------|
D-7---3---10------------------------------------------------|
A-7x6-3x6-10x6----------------------------------------------|
E-5---1----8---5-7-5-7-7^-5---------------------------------|

E-----------------------------------------------------------|
B-----------------------------------------------------------|
G-----------------------------------------------------------|
D-7---3---10----------------4-------------------------------|
A-7x6-3x6-10x6--------------4-------------------------------|
E-5---1----8---5-7-5-7-7^-5-2-------------------------------|

E-----------------------------------------------------------|
B-----------------------------------------------------------|
G-----------------------------------------------------------| 
D-----------------------------------------------------------|
A-----12-12-10-10--------------------10-10-12-12------------|
E-0-0-------------12-12-10-10-12-12-------------------------|

E-----------------------------------------------------------|
B-----------------------------------------------------------|
G-----------------------------------------------------------| 
D-----------------------------------------------------------|
A-----12-12-10-10-------------------------------------------|
E-0-0-------------12-12-10-10-12-12-10-10-12-12-------------|

Repeat the last two

Rinse @ repeat the first part

GIANT solo that i cant tab, then

E-----------------------------------------------------------|
B-----------------------------------------------------------|
G-----------------------------------------------------------|
D-9-9-7-9--7-9-7-10--10---7--7---4-4------------------------|x a few
A-9-9-7-9--7-9-7-10--10x4-7--7x4-4-4------------------------|
E-7-7-5-7--5-7-5--8---8---5--5---2-2------------------------|

E-----------------------------------------------------------|
B-----------------------------------------------------------|
G-----------------------------------------------------------|
D-9-9-7-9--7-9-7-10--10---12--12----------------------------|x a few
A-9-9-7-9--7-9-7-10--10x4-12--12x5--------------------------|
E-7-7-5-7--5-7-5--8---8---10--10----------------------------|

Then the rest of the song: one giant fucking solo. Cant tab it

Hope you enjoy :) (btw x^ = a bend)

            
            
Suggest correction
Creating personal tab
Creating personal tab
You can edit any tab online and save it as your Personal.

You can edit, replace or remove any tab part or add personal notes – all changes will be seen only by you.

Personal tabs can be accessed anytime from any device, even offline.
Learn more »
comments
print report bad tab
5 comments total. Showing first comments.
-1 reply
ArminHammer 31 May 12, 2007 11:46 PM

THE ORIGINAL

-1 reply
the_eggroll 10 Dec 24, 2007 08:57 PM

very nice...but can you name the song that this is taken from?

0 reply
guydeitch 31 Feb 08, 2008 11:20 PM

awesome dude.
all i needed was the beginning, cuz i can't do the solo anyway XD

guest
You may want to rate the tab now too:
select rating
Wanna post a correction for this tab? Suggest correction