Oops, an error
Loading. Please wait.

Burial At Sea tab

by MONO
2,234 views 3 this week
5 commentsread comments
1 2 3 4 5
1 last vote to show rating
add to favorites
×
Save as Personal and add changes to this tab that will be seen only by you. Learn more ›
×
You can save this tab as Personal to edit and correct it or add notes. All changes will be seen only by you. Learn more »
launch autoscroll
font size
0
reset
how to read this tab
guitar tuner
edit
Autoscroll
slow
fast
+/-
esc
set tempo
stop
Author
-----------------------------------------------------------------------------
                             BURIAL AT SEA - Mono
-----------------------------------------------------------------------------
xian gei Yayi



Tuning: Standard

Gtr. 2 (0:30-1:53)
3x
e|--------------------------------------------------------------------------|
B|--------------------------------------------------------------------------|
G|--3---3---3---3---3---3---3---3---3---2---2---2---3---3---3---5---5---5---|
D|----5---5---5---5---5---5---5---5---5---4---4---4---5---5---5---7---7---7-|
A|--------------------------------------------------------------------------|
E|--------------------------------------------------------------------------|

e|--------------------------------------------------------------------------|
B|--------------------------------------------------------------------------|
G|-7---7---7---7---7---7----------------------------------------------------|
D|---7---7---7---7---7---7--------------------------------------------------|
A|--------------------------------------------------------------------------|
E|--------------------------------------------------------------------------|

Gtr. 1 (0:43-1:53)
e|----------------------------------------------------||--------------------|
B|----------------------------------------------------||--------------------|
G|-------------12-----------------11h12p11-14-15-14---||---7--7--7-8-10-7---|
D|------12\10----10--------12\10----------------------||---8--8-------------|
A|-----------13-----------------13--------------------||--10-10-------------|
E|----------------------------------------------------||--------------------|
                                                                repeat
e|--------------------------------------------------------------------||----|
B|------------------------------------8--6-4-3----3h4-3---8-7---11-10-||-8--|
G|------------------------------------7--------5------3---7-7---12-11-||-7--|
D|---10--8-10-12---10-8-10-7---3/5/8--8-------------------------------||-8--|
A|---10-10-10-10---9--9-9--9------------------------------------------||----|
E|--------------------------------------------------------------------||----|

Gtr. 1 (1:56-3:23) Tremolo picking+delay
e|--------------------------------------------------------------------------|
B|-----15-13-11-10-8----16-15-13-11-10----18-16-15-13-11---10-11-13-10------|
G|--------------------------------------------------------------------------|
D|-----12-10--8--7-5----13-12-10--8--7----15-13-12-10--8----7--8-10--7------|
A|--------------------------------------------------------------------------|
E|--------------------------------------------------------------------------|

e|----------------------------------------------------------10-18-17-10-----|
B|----10-11-13-10----10-11-15---11-13-16---13-15-----20-19------------------|
G|----------------------------------------------------------7--15-14--7-----|
D|-----7--8-10--7-----7--8-10----8-10-13---10-12-----17-16------------------|
A|--------------------------------------------------------------------------|
E|--------------------------------------------------------------------------|

e|---------------------------------------------------------10-18-17-10------|
B|--13-22-20-13----11-20-18-11----15-16-15---19---20-22---------------------|
G|----------------------------------------------------------7-15-14--7------|
D|--10-19-17-10-----8-17-15--8----12-13-12---16---17-19---------------------|
A|--------------------------------------------------------------------------|
E|--------------------------------------------------------------------------|

e|---------------------15--17-15---18-17---18-17-14-15----------------------|
B|---13-22-20-13----11------------------------------------------------------|
G|---------------------12--14-12---15-14---15-14-11-12----------------------|
D|---10-19-17-10-----8------------------------------------------------------|
A|--------------------------------------------------------------------------|
E|--------------------------------------------------------------------------|

Gtr. 1 (3:32-4:25) Tremolo picking+delay
e|--------------------------------------------------------------------------|
B|--------------------------------------------------------------------------|
G|--------------------------------------------------------------------------|
D|---5----5-7-8--7--7-8-10-8----7-----8----7-8-10--7--8-10-12-7---7-8-7-----|
A|--------------------------------------------------------------------------|
E|--------------------------------------------------------------------------|

e|--------------------------------------------------------------------------|
B|--------------------------------------------11-13-------------------------|
G|--------------------------------------12-11-------------------------------|
D|--8-10-7--8-10-12---10-12-13--10--12--------------------------------------|
A|--------------------------------------------------------------------------|
E|--------------------------------------------------------------------------|

Gtr. 1 (4:25-5:21) Tremolo picking+delay
e|---10-18-17-10------------------------------------------------------------|
B|-------------------13-22-20-13----11-20-18-11----15-16-15---19---20-22----|
G|----7-15-14--7------------------------------------------------------------|
D|-------------------10-19-17-10-----8-17-15--8----12-13-12---16---17-19----|
A|--------------------------------------------------------------------------|
E|--------------------------------------------------------------------------|

e|---10-18-17-10-----------------------15--17-15---18-17---18-17-14-15------|
B|-------------------13-22-20-13----11--------------------------------------|
G|----7-15-14--7-----------------------12--14-12---15-14---15-14-11-12------|
D|-------------------10-19-17-10-----8--------------------------------------|
A|--------------------------------------------------------------------------|
E|--------------------------------------------------------------------------|

Gtr. 2 (5:32-8:14) add distortion at 7:36
e|--------------------------------------------------------------------------|
B|--------------------------------------------------------------------------|
G|------7----7-----7-----7---------8----8-----8-----8--------10-----10----10|
D|-----8----8-----8-----8--------8-----8-----8-----8-------10-----10----10--|
A|-\10----10----10----10------\10----10----10----10-----\12-----12----12----|
E|--------------------------------------------------------------------------|

e|--------------------------------------------------------------------------|
B|--------------8---8----8---8------10----10-----10----10---------12----12--|
G|-----10------7---7----7---7------9-----9------9-----9---------11----11----|
D|---10-----\8----8----8---8----\10----10-----10----10-------\12----12------|
A|-12-----------------------------------------------------------------------|
E|--------------------------------------------------------------------------|

e|--------------------------------------------------------------------------|
B|--------12----12--------13-----13-----13-----13----8--8--8--8-------------|
G|------11----11--------11-----11-----11-----11-----7--7--7--7--------------|
D|----12----12-------\12-----12-----12-----12------8--8--8--8---------------|
A|--------------------------------------------------------------------------|
E|--------------------------------------------------------------------------|

Gtr. 1 (5:39-6:34)
e|--------------------------------------------------------------------------|
B|-15-13-11-13-11-10-11-10-8-13-11-10-13-11-10-15-13-11-15-13-11-13-11-10-11|
G|--------------------------------------------------------------------------|
D|--------------------------------------------------------------------------|
A|--------------------------------------------------------------------------|
E|--------------------------------------------------------------------------|

e|---10---------------------------------------------------------------------|
B|-13--11-10-8-11-10-8-11-10-8-11-10-8-13-11-10-13-11-10-15-13-11-15-13-11--|
G|--------------------------------------------------------------------------|
D|--------------------------------------------------------------------------|
A|--------------------------------------------------------------------------|
E|--------------------------------------------------------------------------|

e|------------------------------------------------------------------10------|
B|-13-11-10-11-10-8-11-10-8-11-10-8-15-13-11-15-13-11-13-11-10-11-13---11-10|
G|--------------------------------------------------------------------------|
D|--------------------------------------------------------------------------|
A|--------------------------------------------------------------------------|
E|--------------------------------------------------------------------------|

e|--------------------------------------------------------------------------|
B|-8-11-10-8-11-10-8-11-10-8-13-11-10-13-11-10-15-13-11-15-13-11-13-11-10---|
G|--------------------------------------------------------------------------|
D|--------------------------------------------------------------------------|
A|--------------------------------------------------------------------------|
E|--------------------------------------------------------------------------|

e|----------------------------------------------------------10--------------|
B|-11-10-8-11-10-8-11-10-8-15-13-11-15-13-11-13-11-10-11-13----11-10-8------|
G|--------------------------------------------------------------------------|
D|--------------------------------------------------------------------------|
A|--------------------------------------------------------------------------|
E|--------------------------------------------------------------------------|

Gtr. 1 (6:34-7:15) Tremolo picking+delay
e|--------------------------------------------------------------------------|
B|--15---17-15-13------15-13-11------13-11-10----11-10-8--------------------|
G|--------------------------------------------------------------------------|
D|--12---14-12-10------12-10--8------10--8--7-----8--7-5--------------------|
A|--------------------------------------------------------------------------|
E|--------------------------------------------------------------------------|

Gtr. 1 (7:15-8:17)
e|----------------------------------------||--------------------------------|
B|----------------------------------------||--15---13-20---18---13-15---18--|
G|--7---9-7-5----7-5-3----5-3-------------||--------------------------------|
D|----------------------------7----9-7-5--||--12---10-17---15---10-12---15--|
A|--5---7-5-3----5-3-1----3-1-------------||--------------------------------|
E|----------------------------5----7-5-3--||--------------------------------|
        repeat  Variation:
e|------------||------------------------------------------------------------|
B|-19--15-20--||------------------------------------------------------------|
G|------------||--7---5-12---10--5-7-------10--11--12-----------------------|
D|-16--12-17--||------------------------------------------------------------|
A|------------||--5---3-10---8---3-5-------8---9---10-----------------------|
E|------------||------------------------------------------------------------|

Finish with:
e|--18---17---15---10---15---17---18----------------------------------------|
B|--------------------------------------------------------------------------|
G|--15---14---12----7---12---14---15----------------------------------------|
D|--------------------------------------------------------------------------|
A|--------------------------------------------------------------------------|
E|--------------------------------------------------------------------------|
...and drown everything in feedback.

            
            
Suggest correction
Creating personal tab
Creating personal tab
You can edit any tab online and save it as your Personal.

You can edit, replace or remove any tab part or add personal notes – all changes will be seen only by you.

Personal tabs can be accessed anytime from any device, even offline.
Learn more »
Give kudos to tab author, rate the tab!
1 2 3 4 5
comments
print report bad tab
5 comments total. Showing first comments.
0 reply
Nae'blis 898 Mar 06, 2015 04:10 AM

e|--------------------------------------------------------------------||----|
B|------------------------------------8--6-4-3----3h4-3---8-7---11-10-||-8--|
G|------------------------------------7--------5------3---7-7---12-11-||-7--|
D|---10--8-10-12---10-8-10-7---3/5/8--8-------------------------------||-8--|
A|---10-10-10-10---9--9-9--9------------------------------------------||----|
E|--------------------------------------------------------------------||----|

0 reply
Nae'blis 898 Mar 06, 2015 04:10 AM

Gtr. 2 (5:32-8:14) add distortion at 7:36
e|--------------------------------------------------------------------------|
B|--------------------------------------------------------------------------|
G|------7----7-----7-----7---------8----8-----8-----8--------10-----10----10|
D|-----8----8-----8-----8--------8-----8-----8-----8-------10-----10----10--|
A|-\10----10----10----10------\10----10----10----10-----\12-----12----12----|
E|--------------------------------------------------------------------------|

e|--------------------------------------------------------------------------|
B|--------------------------------------------------------------------------|
G|-----10------12-----12-----12-----12---------14-----14-----14-----14------|
D|---10------12-----12-----12-----12---------12-----12-----12-----12--------|
A|-12-----\13-----13-----13-----13--------\13-----13-----13-----13----------|
E|--------------------------------------------------------------------------|

e|--------------------------------------------------------------------------|
B|--------------------------------------------------------------------------|
G|------14-----14-----14-----14----------12-----12-----12-----12------------|
D|----12-----12-----12-----12----------12-----12-----12-----12--------------|
A|-\12-----12-----12-----12---------\13-----13-----13-----13----------------|
E|--------------------------------------------------------------------------|

0 reply
Nae'blis 898 Mar 06, 2015 04:15 AM

Great tab! Saw them live twice, I saw them playing those notes, just a little correction, but great job indeed :)

guest
You may want to rate the tab now too:
select rating
Wanna post a correction for this tab? Suggest correction