Oops, an error
Loading. Please wait.

Sabbath tab

by MONO
770 views 1 this week
1 commentread comment
1 2 3 4 5
1 last vote to show rating
add to favorites
×
Save as Personal and add changes to this tab that will be seen only by you. Learn more ›
×
You can save this tab as Personal to edit and correct it or add notes. All changes will be seen only by you. Learn more »
launch autoscroll
font size
0
reset
how to read this tab
guitar tuner
edit
Autoscroll
slow
fast
+/-
esc
set tempo
stop
Author
Difficulty
MONO - "Sabbath"

E Standard Tuning (Low to high: EADGBe)

MAIN CHORD PROGRESSION

Yoda/Rhythm Guitar

Chord Shapes (in order):

e--0-----------------0-----------0-----------0---------]
B--0-----5-----7-----0-----5-----0-----3-----0---------]
G--6-----7-----9-----6-----7-----6-----4-----6---------]
D--7-----4-----6-----7-----4-----4-----2-----4---------]
A--0-----0-----0-----0-----0-----0-----0-----0---------]
E------------------------------------------------------]

Part A
Rhythm:
*Let notes ring out.

e--------------------0----------------------------------------------------|
B--------------0-----------------------5-----------------------7----------|
G--6-----6-----------------7-----7-----------7-----9-----9-----------9----|
D--7-----------------------4-----------------------6----------------------|
A--0--0-----0-----0-----0--0--0-----0-----0-----0--0--0-----0-----0-----0-|
E-------------------------------------------------------------------------|

e--------------------0-----------------------------------------------0----|
B--------------0-----------------------5-----------------------0----------|
G--6-----6-----------------7-----7-----------7-----6-----6----------------|
D--7-----------------------4-----------------------4----------------------|
A--0--0-----0-----0-----0--0--0-----0-----0-----0--0--0-----0-----0-----0-|
E-------------------------------------------------------------------------|

e-------------------------------------------0-----]
B--------------3----------------------0-----------]
G--4-----4----------4-----6-----6-----------------]  x3
D--2----------------------4-----------------------]
A--0--0-----0----0-----0--0--0-----0-----0-----0--]
E-------------------------------------------------]

Part B
End on:

e--2----2----2----2------------------------]
B--2----2----2----2----7----7----7----7----]
G--2----2----2----2----7----7----7----7----]   x4
D--4----4----4----4----7----7----7----7----]
A--4----4----4----4----5----5----5----5----]
E--2----2----2----2------------------------]

   F#m                 D

Part C
Then:

e--------------------------]
B--------------------------]
G--------6-----6-----6-----]   x4
D-----7-----7-----7-----7--]
A--0-----------------------]
E--------------------------]

Repeat in order: Part A (x2)
                 Part B (x4)
                 Part C (x4)

Taka/Lead Guitar

Slide Guitar Part:

e----------------------------------------------------------------------------|
B----------------------------------------------------------------------------|
G--14/16-16\14-14\13-13---13/14-14\13-13\11-11------11/14-----16/18----16/18-|
D----------------------------------------------------------------------------|
A----------------------------------------------------------------------------|
E----------------------------------------------------------------------------|

e----------------------------------------------------------------------------|
B----------------------------------------------------------------------------|
G----16/18----11------13/--14\13/14-14/16--14/16-16/18--\16---13/14--\13-\11-|
D----------------------------------------------------------------------------|
A----------------------------------------------------------------------------|
E----------------------------------------------------------------------------|

e-----------------------------------------------------------------------------|
B-----------------------------------------------------------------------------|
G--\9--11/14------16/18------16/18----16/18----11----13/14\13/14-14/16--14/16-|
D-----------------------------------------------------------------------------|
A-----------------------------------------------------------------------------|
E-----------------------------------------------------------------------------|

e--------------------------------------------------------------|
B--------------------------------------------------------------|
G--/18---16------13/14\13-13\11-11--9--9/11----------------9\--|
D--------------------------------------------------------------|
A--------------------------------------------------------------|
E--------------------------------------------------------------|
                                      ^Delay pedal on here to get the repeats

e----------------------------------------------------------------------------|
B----------------------------------------------------------------------------|
G------13---------11----------9-----------9\6------------4------------7\6----|
D----------------------------------------------------------------------------|
A----------------------------------------------------------------------------|
E----------------------------------------------------------------------------|

e----------------------------------------------------------------------------|
B----------------------------------------------------------------------------|
G--4/7---7/9---------------------------------14\9----------------------------|
D----------------------------------------------------------------------------|
A----------------------------------------------------------------------------|
E----------------------------------------------------------------------------|

Alternate Picking Part:

For the sake of it being way too tedious to write out, i just put the note to
alternate pick in this section unless otherwise noted. After practicing
playing through the song a while, you should be able to get the gist of the
notes and scale Taka uses.

*keep delay pedal on

e----------------------------------------------------------------------------|
B----------------------------------------------------------------------------|
G----------------------------------------------------------------------------|
D--9---7---9---7---9---11---12---11---14---12---11---9---11---9---7---6---4--|
A----------------------------------------------------------------------------|
E----------------------------------------------------------------------------|

e----------------------------------------------------------------------------|
B----------------------------------------------------------------------------|
G----------------------------------------------------------------------------|
D--2---9---11---7---9---11---7---9---11---12---14---16---18---19---18---19---|
A----------------------------------------------------------------------------|
E----------------------------------------------------------------------------|

e----------------------------------------------------------------------------|
B----------------------------------------------------------------------------|
G------------18------18--18--16------------------------------------16---18---|
D--21---19----------------------------18--19---18---16---14---19-------------|
A----------------19----------------------------------------------------------|
E----------------------------------------------------------------------------|

             ^let these few notes         ^alternate picking pattern comes
              ring out and let the         back in here
              delay carry them

e----------------------------------------------------------------------------|
B----------------------------------------------------------------------------|
G-----------------16---18--------16---18------------16---18---18\14-14-14----|
D--18--19---18--------------19-------------19--18----------------------------|
A----------------------------------------------------------------------------|
E----------------------------------------------------------------------------|

I like to end like this when i play Taka's part (end on high A chord):

e-------------------------------------------------------------------12~~~~---|
B-----------------------------------------------------------------14~~~~~~---|
G--18-18-18-18-18-18-18-18-18\14-14-14-14-14-14-14-14-14-14-14--14~~~~~~~~---|
D----------------------------------------------------------------------------|
A----------------------------------------------------------------------------|
E----------------------------------------------------------------------------|

                                                                A

            
            
Suggest correction
Creating personal tab
Creating personal tab
You can edit any tab online and save it as your Personal.

You can edit, replace or remove any tab part or add personal notes – all changes will be seen only by you.

Personal tabs can be accessed anytime from any device, even offline.
Learn more »
Give kudos to tab author, rate the tab!
1 2 3 4 5
comments
print report bad tab
1 comment total.
+1 reply
mvinicius 45 Jun 01, 2013 02:15 AM

thanks for posting! very good!

guest
You may want to rate the tab now too:
select rating
Wanna post a correction for this tab? Suggest correction