Oops, an error
Loading. Please wait.

Arctic Hysteria tab

111 views 1 this week
no commentswrite comment
1 2 3 4 5
3 more votes to show rating
add to favorites
×
Save as Personal and add changes to this tab that will be seen only by you. Learn more ›
×
You can save this tab as Personal to edit and correct it or add notes. All changes will be seen only by you. Learn more »
launch autoscroll
font size
0
reset
how to read this tab
guitar tuner
edit
Autoscroll
slow
fast
+/-
esc
set tempo
stop
Author
Difficulty
Artist: Monoceros 
Song: Arctic Hysteria
Album: In Girum Imus Nocte Et Consumimur Igni

www.facebook.com/Monocerosmexico
www.soundcloud.com/Monocerosmexico
www.reverbnation.com/Monocerosmexico

Tab transcrita por/Tabbed by: Os Negrete


  Guitarra/Guitar 1 - Afinación Standard/ Standard Tuning (EADGBe) - Capo en traste dos/Capo 
on second fret. 

  NOTAS NO RELATIVAS AL CAPO/ NOTES NOT RELATIVE TO CAPO

  Intro (Ritmo no especificado/Rythm not specified):

e|-----------|----------|---------------------------2-----|
b|-----------|----------|--10-9-10---9-7-9---7-2-5--2-----|
g|--2-2-2-2--|--2-2-2-2-|---2-2--2---2-2-2---2-2-2--2-----|
d|--7-6-4-0--|--7-6-4-0-|---7-7--7---6-6-6---4-4-4--4-----|
a|--9-7-5-2--|--9-7-5-2-|---9-9--9---7-7-7---5-5-5--4-----|
e|--2-2-2-2--|--2-2-2-2-|---2-2--2---2-2-2---2-2-2--2-----|

  0:25 (tremolo picking y delay):

e|--------------------------------------------------------|
b|--------------------------------------------------------|
g|--------------------------------------------------------|
d|-11-9-7-14-12-11-9-6-7-9-6-12-11-7-2-7-6---2-7-6--------|
a|-----------------------------------------7-------4------|
e|--------------------------------------------------------|
 
     1:15-2:20:
 
   e|--------------------------------------|--------------------------------------------|
   b|-----9-9------10-9------9-9------10-9-|-----7-9------9-7------7-9------10-9--------|
 . g|--------------------------------------|--------------------------------------------|
 . d|---7--------7---------7--------7------|---6--------6--6----6---6-----6-------------|
   a|-9--------9---------9--------9--------|-7--------7-------7---------7---------------|
   e|--------------------------------------|--------------------------------------------|

   e|-------2------2--------------------|-----------------------2--------------------------2-----|
   b|-----5----------5-----5-2------2---|---------2--------2------2----------2---------2-----2---|
   g|---------------------------------2-|-----4-----4--------4-----------4-----4---------4-------| . 
   d|---4--4-----4--4----4--4-----4--4--|--------------------------------------------------------| . 
   a|-5--------5-------5--------5-------|---4---4--------4-------------4---4---------4-----------|
   e|-----------------------------------|-2------------2-------------2-------------2-------------|

   e|---------------------------------9----|-----7-9------9-7------7-9-----9---10--9/------------|
   b|-----9-9------10-9------9-9---------9-|-----------------------------------------------------|
   g|--------------------------------------|-----------------------------------------------------|
   d|---7--------7---------7--------7------|---6--6-----6--6----6---6----6---6---6---------------|
   a|-9--------9---------9--------9--------|-7--------7-------7----------------------------------|
   e|--------------------------------------|-----------------------------------------------------|

   e|-----5-7------7-5-----5-2------2---|--------------2--------2----|--------------2---|
   b|---------------------------------2-|---------2----2----2------2-|---------2----2---|
   g|-----------------------------------|-----4-----4--4-------4-----|-----4-----4--4---|
   d|---4--4-----4--4----4--4-----4--4--|--------------2-------------|--------------2---|
   a|-5--------5-------5--------5-------|---4---4------4-------------|---4---4------4---|
   e|-----------------------------------|-2------------2---2---------|-2------------2---|

  2:20-3:02 (Ritmo no especificado/Rythm not specified):

e|-9-2-9-10-9-7-|-7-2-7-12-10-9-|-5-2-5-7-5-|--5-5----|
b|-2-2-2--2-2-2-|-2-2-2--2--2-2-|-5-5-5-5-5-|--5-5----|
g|-2-2-2--2-2-2-|-2-2-2--2--2-2-|-2-2-2-2-2-|--2-4----|
d|-7-7-7--7-7-x-|-6-6-x--x--x-x-|-4-4-4-4-4-|--2-2----|
a|-9-9-9--9-9-9-|-7-7-7--7--7-7-|-5-5-5-5-5-|--4-2----|
e|-2-2-2--2-2-2-|---------------|-----------|--5-4----|

 3:03-3:46

e|--------------------------------------|--------------------------------------------|
b|-----9-9------10-9------9-9------10-9-|-----7-9------9-7------7-9------10-9--------|
g|--------------------------------------|--------------------------------------------|
d|---7--------7---------7--------7------|---6--------6--------6--------6-------------|
a|-9--------9---------9--------9--------|-7--------7-------7---------7---------------|
e|--------------------------------------|--------------------------------------------|

e|-------2------2----------------------------|-----------------------2--------------------------2---|
b|-----5--5--------5-------5-2------2--------|---------2--------2------2----------2---------2-----2-|
g|------2--------2--2-------2-2--------2-----|-----4-----4--------4-----------4-----4---------4-----|
d|---4--------4----------4--------4--4---4---|------------------------------------------------------|
a|-5--------5----------5--------5------------|---4---4--------4-------------4---4---------4---------|
e|-------------------------------------------|-2------------2-------------2-------------2-----------|

e|---------------------------------9----|-----7-9------9-7------7-9-----9---10--9/------------|
b|-----9-9------10-9------9-9---------9-|--------2--------2--------2--------------------------|
g|--------------------------------------|------2--------2--------2----2---2---2---------------|
d|---7--------7---------7--------7------|---6--------6-------6--------------------------------|
a|-9--------9---------9--------9--------|-7--------7-------7----------------------------------|
e|--------------------------------------|-----------------------------------------------------|

e|-------2------2----------------------------|-----------------------2--------------------------2---|
b|-----5--5--------5-------5-2------2--------|---------2--------2------2----------2---------2-----2-|
g|------2--------2--2-------2-2--------2-----|-----4-----4--------4-----------4-----4---------4-----|
d|---4--------4----------4--------4--4---4---|------------------------------------------------------|
a|-5--------5----------5--------5------------|---4---4--------4-------------4---4---------4---------|
e|-------------------------------------------|-2------------2-------------2-------------2-----------|

   3:19-3:23 & 3:40-3:45 (Distor):
 
e|-2222222-------| 
b|-2222222-------|
g|-2222222-------|
d|-4444444-------|
a|-4444444-------|
e|-2222222-------|

 
  Puente/bridge (Rasgueado hacia arriba y con efecto de tremolo/Upstroked and with tremolo effect):

e|-5-------|
b|-5-------|
g|-2-------|
d|-4-------|
a|-4-------|
e|-2-------|

  4:06:
   
e|-----------------------|
b|-----------------------|
g|-----------------------|
d|-2h4-4-4/11-7-6-4------|
a|-x---------------------|
e|-0---------------------|



  4:37-5:18 (ritmo no señalado/rythm not specified):

e|-----------------------------------------------------------------------|
b|-----------------------------------------------------------------------|
g|-18-16-14-21-19-18-16-13-14-16-13-19-18-14-9-14-13-9-14-13-6-4-7-2-4---|
d|--x--x--x--x--x--x--x--x--x--x--x--x--x--x-x--x--x-x--x--x-x-x-x-x-x-7-|
a|-16-14-12-19-17-16-14-11-12-14-11-17-16-12-7-12-11-7-12-11-4-2-5-4-2-x-|
e|---------------------------------------------------------------------5-|


 4:37 Guitarra de fondo/Background guitar(ritmo no especificado/rythm not specified):

e|-5-5--2--2-------|
b|-5-5--2--5-------|
g|-2-4-11--4-------|
d|-2-2-11--6-------|
a|-4-2--9--7-------|
e|-5-4--2--x-------|


  5:19-6:22 (tremolo pickin & delay)

e|-10--9-7--9-|-10--9-7--9-|-12-10--9-10-|-7--9--10--9-10-12-14-16-----|
b|-12-10-9-10-|-12-10-9-10-|-14-12-10-12-|-9--10-12-10-12-14-15-17-----|
g|------------|------------|-------------|-----------------------------|
d|------------|------------|-------------|-----------------------------|
a|------------|------------|-------------|-----------------------------|
e|------------|------------|-------------|-----------------------------|


e|-17-16-14-16-|-17-16-14-16-|-19-17-16-17-|-21-19-17-19-17/19-17-16-17-16-14-16--|
b|-------------|-------------|-------------|--------------------------------------|
g|-------------|-------------|-------------|--------------------------------------|
d|-------------|-------------|-------------|--------------------------------------|
a|-------------|-------------|-------------|--------------------------------------|
e|-------------|-------------|-------------|--------------------------------------|


e|-17-16-14-16-|-17-16-14-16-|-19-17-16-17-|-21-22-21--------|
b|-------------|-------------|-------------|-----------------|
g|-------------|-------------|-------------|-----------------|
d|-------------|-------------|-------------|-----------------|
a|-------------|-------------|-------------|-----------------|
e|-------------|-------------|-------------|-----------------|



 Guitarra/Guitar 2 - Afinación standard/Standard Tuning - Sin capo/No Capo -

  Intro (cello):
e|--------------------------------------------------------|
b|--------------------------------------------------------|
g|--------------------------------------------------------|
d|--7-6-7-6-4-6-4-----------------------------------------|
a|----------------4-7-4-----------------------------------|
e|--------------------------------------------------------|

 0:50 tremolo picking & delay:
e|-------------------------14-16-17-----------------------|
b|-------------------14-17--------------------------------|
g|-11-9-6-9-11-13-14--------------------------------------|
d|--------------------------------------------------------|
a|--------------------------------------------------------|
e|--------------------------------------------------------|

  1:15-2:20:

e|-----12--12---10--9-----|-----12--12--------------|----------------------|
B|-------10--10--------12-|-------10--10-12/14-12-10|------9--9---9-10-12--|
G|---11-----------11-11---|---11--------------------|----9--9--9------9----|
D|-11---------------------|-11----------------------|--9-----------9-----9-|
A|------------------------|-------------------------|----------------------|
E|------------------------|-------------------------|----------------------|

e|------------9--10-12---|-------12--12--12--12--12-|---------12---12--12---12--12---|
B|-----9--9--------------|--------------------------|--------------------------------|
G|---9---9--9---9--9-----|-----11------9------------|------11---------9--------------|
D|-9---------------------|---------12------11-------|------------12-------11---------|
A|-----------------------|---9-----------------12---|----9--------------------12-----|
E|-----------------------|-10-----------------------|-10-----------------------------|

e|----------------------------|------------------------------|
b|-----2----------------------|----2-------------------------|
g|---------------2------------|------------2-----------------|
d|----------6---------6-------|--------6--------6------------|
a|---4--------------------4---|--4------------------4--------|
e|-2-----2-----2---2----2---2-|-2-----2---2---2----2---------|

  2:20-3:03 (ritmo no señalado/rythm not specified):

e|----------------|----------------|---------------|--------------|
b|----------------|----------------|---------------|--------------|
g|----------------|----------------|---------------|--------------|
d|-11-4-11-12-11-9|-11-4-9-14-12-11|-14-7-14-12-11-|-9/11-12-14-9-|
a|--x-x--x--x--x-x|--x-x-x--x--x--x|--x-x--x--x--x-|-x/-x--x--x-x-|
e|--9-2--9-10--9-7|--9-2-7-12-10--9|-12-5-12-10--9-|-7/-9-10-12-7-|

  3:03-3:45:
  
e|----------------------|-----------------------|------------------|
b|----------------------|-----------------------|------------------|
g|-----------------2----|-----------------2-----|-------1------1---|
d|------6-6---------- 6-|------6-6----------6---|-----4----------4-|
a|----4-----------4-----|---4-----------4-------|---2--------2-----|
e|--2-----------2-------|-2----------2----------|-0--------0-------|

e|------------------|-------------------------|-222222/14--222222/14---------------|
b|------------------|-------------------------|-222222/14--222222/14---------------|
g|-------1------2-1-|-------------------------|-222222/14--222222/14---------------|
d|-----4------------|-2h4-2-------------------|-444444/16--444444/16---------------|
a|---2--------2-----|-------5-4-4h5-4-2-4-5-4-|-444444/16--444444/16---------------|
e|-0--------0-------|-------------------------|-222222/14--222222/14---------------| 

e|----------------------|-----------------------|------------------|
b|----------------------|-----------------------|------------------|
g|-----------------2----|-----------------2-----|-------1------1---|
d|------6-6---------- 6-|------6-6----------6---|-----4----------4-|
a|----4-----------4-----|---4-----------4-------|---2--------2-----|
e|--2-----------2-------|-2----------2----------|-0--------0-------|

e|------------------|-------------------------|-222222/14--222222/14---------------|
b|------------------|-------------------------|-222222/14--222222/14---------------|
g|-------1------2-1-|-9h11-9-7-6-6h7-6-4-6-7-6|-222222/14--222222/14---------------|
d|-----4------------|-------------------------|-444444/16--444444/16---------------|
a|---2--------2-----|-------------------------|-444444/16--444444/16---------------|
e|-0--------0-------|-------------------------|-222222/14--222222/14---------------| 


  Whammy Riff: 

e|-----------------|
b|-----------------|
g|-----------------|
d|-----------------|
a|-----2/4-0-------|
e|-2-2-------4-2---|


   4:37-6:15:

  e|------------------------------------------------------------|
  b|-10-9------10---9-------10---9--------12-9------------------|
. g|--9----9-----------9-------------9-----------9--------------|
. d|-11------11----------11------------11----------11-----------|
  a|--0---0-------0---0--------0---0--------0--0----------------|
  e|------------------------------------------------------------|


  e|------------------------------------------------------------|
  b|-12---10-------12---10-------12----10-------12-10-9---------|
  g|--9--------9-------------9--------------9--------------9----|
  d|--9------9---9----9----9---9----9-----9---9----------9---9--|
  a|------------------------------------------------------------|
  e|------------------------------------------------------------|

  e|-12---10---9----------------------------------12-------10-------|
  b|----------------12---10---9---10------10------------------------|
  g|---------9----9----9----9---9-------9-------9-------9--------9--|
  d|----11---------------------------11------11------11------11-----|
  a|----------------------------------------------------------------|
  e|----------------------------------------------------------------|

  e|--9------9--------------------------------------------------------------|
  b|------------------12--------12-------10-------10-----------9-------9----|
  g|-------9------9----------9--------9--------9--------9--------9--------9-|  .
  d|----11-----11--------11--------11-------11-------11------11------11-----|  .
  a|------------------------------------------------------------------------|
  e|------------------------------------------------------------------------|

  6:16-6:22:
                                                                         
  e|--9------9---------------------------10-------10---9-------------| 
  b|------------------12--------12--------------------------12----9--| 
  g|-------9------9----------9--------9--------9----------------9----| 
  d|----11-----11--------11--------11-------11-----------11----------| 
  a|-----------------------------------------------------------------| 
  e|-----------------------------------------------------------------| 

  Fin/End:

  e|-------|
  B|--10---|
  G|---9---| 
  D|--11---|
  A|---0---|
  E|-------|

            
            
Suggest correction
Creating personal tab
Creating personal tab
You can edit any tab online and save it as your Personal.

You can edit, replace or remove any tab part or add personal notes – all changes will be seen only by you.

Personal tabs can be accessed anytime from any device, even offline.
Learn more »
Give kudos to tab author, rate the tab!
1 2 3 4 5
comments
print report bad tab
guest
You may want to rate the tab now too:
select rating
Wanna post a correction for this tab? Suggest correction