Oops, an error
Loading. Please wait.

La Tumba Del Guerrilllero tab

38 views 1 this week
no commentswrite comment
1 2 3 4 5
3 more votes to show rating
add to favorites
×
Save as Personal and add changes to this tab that will be seen only by you. Learn more ›
×
You can save this tab as Personal to edit and correct it or add notes. All changes will be seen only by you. Learn more »
launch autoscroll
font size
0
reset
how to read this tab
guitar tuner
edit
Autoscroll
slow
fast
+/-
esc
set tempo
stop
Trop D

INTRO
                                 la tumba del guerrillero...
D)|-2-0-2----2-0-2----5-0-5-0-5-4-2------|-5--2--4----5--2--4---|
A)|-2-0-2----2-0-2----5-0-5-0-5-4-2------|-5--2--2----5--2--2---|
D)|-2-0-2----2-0-2----5-0-5-0-5-4-2------|-5--2-------5---------|

¡¡¡La tumba del guerrillero!!!            su madre...
D)|-2-0-2----2-0-2----5-0-5-0-5-4-2------|-5--2--4----5--2--4---|
A)|-2-0-2----2-0-2----5-0-5-0-5-4-2------|-5--2--2----5--2--2---|
D)|-2-0-2----2-0-2----5-0-5-0-5-4-2------|-5--2-------5---------|

Em                         D
Guerrillero, vos surgis en ríos
         Em
montes y praderas
      Em                     D
en el viento que mece el chinchorro
              Em    E
del hijo del Juan
       Am
en las manos humildes y toscas
        Em
de la vivandera
      F#
en la Milpa donde el campesino
             B7
busca y busca el pan.


(SOLO)

D)|-2-0-2----2-0-2----5-0-5-0-5-4-2------|-5--2--4----5--2--4---|
A)|-2-0-2----2-0-2----5-0-5-0-5-4-2------|-5--2--2----5--2--2---|
D)|-2-0-2----2-0-2----5-0-5-0-5-4-2------|-5--2-------5---------|

¡¡¡La tumba del guerrillero!!!            su madre...
D)|-2-0-2----2-0-2----5-0-5-0-5-4-2------|-5--2--4----5--2--4---|
A)|-2-0-2----2-0-2----5-0-5-0-5-4-2------|-5--2--2----5--2--2---|
D)|-2-0-2----2-0-2----5-0-5-0-5-4-2------|-5--2-------5---------|

Guerrillero, vos nacés de nuevo
en la carabina
en los bronquios de Pedro el minero
que en Siuna murió
en los ojos de los miserables que en Acahualinca
aún espera sedientos
la aurora de la rendición.
Como dijo el poeta trapense
de Solentiname
no quisieron decirnos el sitio
donde te encontrás
y por eso tu tumba es todito
nuestro territorio
en cada palmo de mi Nicaragua
ahí vos estás

D)|-2-0-2----2-0-2----5-0-5-0-5-4-2------|-5--2--4----5--2--4---|
A)|-2-0-2----2-0-2----5-0-5-0-5-4-2------|-5--2--2----5--2--2---|
D)|-2-0-2----2-0-2----5-0-5-0-5-4-2------|-5--2-------5---------|

¡¡¡La tumba del guerrillero!!!            su madre...
D)|-2-0-2----2-0-2----5-0-5-0-5-4-2------|-5--2--4----5--2--4---|
A)|-2-0-2----2-0-2----5-0-5-0-5-4-2------|-5--2--2----5--2--2---|
D)|-2-0-2----2-0-2----5-0-5-0-5-4-2------|-5--2-------5---------|

            
            
Suggest correction
Creating personal tab
Creating personal tab
You can edit any tab online and save it as your Personal.

You can edit, replace or remove any tab part or add personal notes – all changes will be seen only by you.

Personal tabs can be accessed anytime from any device, even offline.
Learn more »
Give kudos to tab author, rate the tab!
1 2 3 4 5
comments
print report bad tab
guest
Wanna post a correction for this tab? Suggest correction