Oops, an error
Loading. Please wait.

Raven Claws bass

version 2
version 2

Whole song

Interactive

437 views 1 this week
1 commentread comment
1 2 3 4 5
3 more votes to show rating
add to favorites
×
Save as Personal and add changes to this tab that will be seen only by you. Learn more ›
×
You can save this tab as Personal to edit and correct it or add notes. All changes will be seen only by you. Learn more »
launch autoscroll
font size
0
reset
guitar tuner
edit
Autoscroll
slow
fast
+/-
esc
set tempo
stop
Author
Difficulty
Moonspell - Raven Claws
E Tuning

it's 95% correct = I looked how bassist plays it live and listened to orignal wersion.
Both are little diffrent.
So maybe there are little mistakes. If think it's almost correct, I play like that.

p = pauza

main riff
G:---------------------------------0-0-0-0-0-0-0-0-3-3-2-2-----0---|x5
D:-0-0-0-0-0-0-0-0-3-3-3-3-3-3-3-3-------------------------3-3---3-|
A:-----------------------------------------------------------------|
E:-----------------------------------------------------------------|

end of main riff
G:---------------------------------0-0-0-0-0-0-0-55-5-7-5-----------|x1
D:-0-0-0-0-0-0-0-0-3-3-3-3-3-3-3-3------------------------8-7-8-7-5-|
A:------------------------------------------------------------------|
E:------------------------------------------------------------------|

riff2
G:-----------------------------|x4
D:-0-0-0-0-0-p-----------------|
A:-------------1-0-0-0-0-0-p-3-|
E:-----------------------------|

G:-------------------------------------------2---------------------|x1
D:-0-0-0-0-3-0-3-0-----------------0-0-0-0-3---3-------------------|
A:-----------------0-0-0-0-0-0-0-3---------------1-0-0-0-0-0-0-0-3-|
E:-----------------------------------------------------------------|


G:-----------------------------------------------------------------|x1
D:-0-0-0-0-3-0-3-0---------------------------------7-7-7-7-7-7-7-7-|
A:-----------------0-0-0-0-0-0-0-3-5-5-5-5-5-5-5-5-----------------|
E:-----------------------------------------------------------------|

main riff x4 (without "end of main riff")

riff2 x1 (all)

main riff x8 and end

G:------------|
D:-0----------|   :)

that's it.

Greeting from Poland :)

            
            
Suggest correction
Creating personal tab
Creating personal tab
You can edit any tab online and save it as your Personal.

You can edit, replace or remove any tab part or add personal notes – all changes will be seen only by you.

Personal tabs can be accessed anytime from any device, even offline.
Learn more »
Give kudos to tab author, rate the tab!
1 2 3 4 5
comments
print report bad tab
1 comment total.
0 reply
scorpionx 51 Aug 16, 2012 03:38 AM

in 1:24 and 2:22 is
G:-5-7-5-----------|
D:-------8-7-8-7-5-| not

G:-3-3-2-2-----0---|
D:---------3-3---3-|

guest
You may want to rate the tab now too:
select rating
Wanna post a correction for this tab? Suggest correction