Oops, an error
Loading. Please wait.

Migraine tab

version 1
version 1

Whole song

Interactive

36,721 views 48 this week
1 commentread comment
1 2 3 4 5
x 3
add to favorites
×
Save as Personal and add changes to this tab that will be seen only by you. Learn more ›
×
You can save this tab as Personal to edit and correct it or add notes. All changes will be seen only by you. Learn more »
launch autoscroll
font size
0
reset
how to read this tab
guitar tuner
edit
Autoscroll
slow
fast
+/-
esc
set tempo
stop
Author
Difficulty
intermediate
Title: Migraine 
Artist:Moonstar88


[Intro]
e|-----------------------------------|-----------------------------------------|
B|-----------------------------------|-----------------------------------------|
G|--7779991010-14141414-16-10101010--|-7779991111-1414141--1616-12121212-11-12-|
D|--7779991010-14141414-16-10101010--|-7779991111-14141414-1616-12121212-11-12-|
A|--5557779999-12121212-14-9999999---|-5557779999-12121212-1414-10101010-9--10-|
E|-----------------------------------|-----------------------------------------|

[Verse 1]
 "Palm Mutting d2"....
      Oo nga pala?.. hindi nga pala tayo.....Hanggang dito lang ako,nangangarap na mapa-sayo..
e|--------------------------------------------------------------|
B|--------------------------------------------------------------|
G|-777777777777777444444444444444-------------------------------|
D|-777777777777777444444444444444-4444444444444455555555555555--|
A|-555555555555555222222222222222-4444444444444445555555555555--|
E|--------------------------------2222222222222223333333333333--|

     Hindi sinasadya..... Na hanapin pa ang lugar ko Asan nga ba ako? andiyan pa ba sa iyo?
e|---------------------------------------------------------------3---|
B|---------------------------------------------------------------3---|
G|-777777777777777444444444444444--------------------------------0---|
D|-777777777777777444444444444444-4444444444444455555555555555---0---|
A|-555555555555555222222222222222-4444444444444455555555555555---2---|
E|--------------------------------2222222222222223333333333333---3---|

[Chorus]
    Nahihilo......Nalilito....Asan ba ko sayo? aasa ba ko sayo?
e|--------------------------------------------------------------|
B|--------------------------------------------------------------|
G|-777777777777777444444444444444-------------------------------|
D|-777777777777777444444444444444-4444444444444455555555555555--|
A|-555555555555555222222222222222-4444444444444445555555555555--|
E|--------------------------------2222222222222223333333333333--|

[Verse 2]
  Nasusuka ako...  Kinakain na ang loob..Masakit ng mga tuhod.. kailangan bang lumuhod....
e|--------------------------------------------------------------|
B|--------------------------------------------------------------|
G|-777777777777777444444444444444-------------------------------|
D|-777777777777777444444444444444-4444444444444455555555555555--|
A|-555555555555555222222222222222-4444444444444445555555555555--|
E|--------------------------------2222222222222223333333333333--|

    Gusto ko lang naman... Yung totoo.....Ung tipong ang sagot ay hindi rin isang tanong..
e|--------------------------------------------------------------|
B|--------------------------------------------------------------|
G|-777777777777777444444444444444-------------------------------|
D|-777777777777777444444444444444-4444444444444455555555555555--|
A|-555555555555555222222222222222-4444444444444445555555555555--|
E|--------------------------------2222222222222223333333333333--|

[Chorus]
    Nahihilo......Nalilito....Asan ba ko sayo? aasa ba ko sayo?
e|--------------------------------------------------------------|
B|--------------------------------------------------------------|
G|-777777777777777444444444444444-------------------------------|
D|-777777777777777444444444444444-4444444444444455555555555555--|
A|-555555555555555222222222222222-4444444444444445555555555555--|
E|--------------------------------2222222222222223333333333333--|

    Nahihilo......Nalilito....Asan ba ko sayo? aasa ba ko sayo?
e|--------------------------------------------------------------|
B|-------------------------------------------------------------|
G|-777777777777777444444444444444-------------------------------|
D|-777777777777777444444444444444-4444444444444455555555555555--|
A|-555555555555555222222222222222-4444444444444445555555555555--|
E|--------------------------------2222222222222223333333333333--|

[Bridge]
  D         Bm     F#m         G
Dahil..... di na.makatulog (makatulog)
  D       Bm       F#m          G
Dahil......Hindi na makakain (makakain)

 Dahil.hindi na makatawa (makatawa)
e|-----------------------------------------------------|
B|-----------------------------------------------------|
G|-7777777777--9999999999--111111111--121212121212-----|
D|-xxxxxxxxxx--xxxxxxxxxx--xxxxxxxxx--xxxxxxxxxxxx-----|
A|-5555555555--7777777777--99999999---101010101010-----|
E|-----------------------------------------------------|

 Dahil hindi..na.....ahhhh…
e|-------------------------------------------|
B|-------------------------------------------|
G|-7777777777--9999999999--11111111111--12---|
D|-xxxxxxxxxx--xxxxxxxxxx--xxxxxxxxxxx--xx---|
A|-5555555555--7777777777--9999999999---10---|
E|-------------------------------------------|

Biglang....

      Oo nga pala?.. hindi nga pala tayo.....Hanggang dito lang ako....
e|--------------------------------------------------------------|
B|--------------------------------------------------------------|
G|-777777777777777444444444444444-------------------------------|
D|-777777777777777444444444444444-4444444444444455555555555555--|
A|-555555555555555222222222222222-4444444444444445555555555555--|
E|--------------------------------2222222222222223333333333333--|

 Sabay mo ung lead na..... 
e|-14------|
B|b----15---|
G|g-14------|
D|---------|
A|---------|
E|---------|

(3;17)
CHORUS ULIT!!!!

(3;33)
TAPOS ISA PA!!!!

(3;49)
CHORUS NA MABAGAL.... ung (nahihilo.... ohohoho wooo woo...)

 (4:06)
 TAPOS ETO...
 Nahihilo....
e|--------------------------------------------------------------|
B|--------------------------------------------------------------|
G|-777777777777777444444444444444-------------------------------|
D|-777777777777777444444444444444-4444444444444455555555555555--|
A|-555555555555555222222222222222-4444444444444445555555555555--|
E|--------------------------------2222222222222223333333333333--|

 Eto ung lead Guitar2(kyo na bahala kung san nyo sakto at kung ilan beses) basta eto un!
e|-12-10----10-10--12-10----10--10---12--10----10--10-12-10----10-12--15-|
B|-------12--------------12-----------------12--------------12-----------| END!
G|-----------------------------------------------------------------------|
D|-----------------------------------------------------------------------|
A|-----------------------------------------------------------------------|
E|-----------------------------------------------------------------------|

************************************

| x  Dead note
| b  Bend
| g  Grace note

************************************

            
            
Suggest correction
Creating personal tab
Creating personal tab
You can edit any tab online and save it as your Personal.

You can edit, replace or remove any tab part or add personal notes – all changes will be seen only by you.

Personal tabs can be accessed anytime from any device, even offline.
Learn more »
Give kudos to tab author, rate the tab!
1 2 3 4 5
comments
print report bad tab
1 comment total.
0 reply
markchordz 16,994 Sep 17, 2008 02:51 AM

dami naman kulang..hahaha wala pa un plucking..

guest
You may want to rate the tab now too:
select rating
Wanna post a correction for this tab? Suggest correction